Oops, an error
Loading. Please wait.

Do It For Me Now Tab

version 4
version 4

Whole song

Interactive

3,300 views 1 this week
no commentswrite comment
1 2 3 4 5
please rate
add to favorites
launch autoscroll
font size
0
reset
how to read this tab
guitar tuner
Tab Pro tools
  • play this tab
  • loop segment
  • change instrument
  • show fretboard
  • metronome
×
Best way to learn
"Do It For Me Now"
Autoscroll
slow
fast
+/-
esc
set tempo
stop
Contributor
Difficulty
novice
-------------------------------------------------------------------------------
                     Angels And Airwaves - Do It For Me Now 
-------------------------------------------------------------------------------
Tabbed by: Sam Ryan - SammyRhyno
Email: Mankybear27@hotmail.co.uk

Tuning: Standard

Novice

I've seen several tabs for this on the internet now, but I wasn't getting close
to the actual song, so here's my version of the song. 

I noticed when people have tabbed this they insist the use of a delay effect.
You really want to use a 'Tape Echo' effect to get that real spacey echo.
For my effect settings, I have the Echo 'Delay' set to 303ms, if your amp or effect
processor can synch to a beat, have it synched to a quaver beat, this will auto-
matically bring you to 303ms. My feedback is then set to 4.4 just to give that
extra umph in the echo.
I use the echo throughout the whole song, but if you wish to switch to a bright
clean during the chorus that also sounds true to the song. :)

Guitar 1

Intro

No guitar until 0:12 seconds,

0:12 - 0:18

e|-----------------------------------|
B|-----------------------------------|
G|-----------------------------------| x2
D|-7-7-11-7-7-11-7-7-9-7-7-11-7-7-7-7|
A|-----------------------------------|
E|-----------------------------------|
   . . .  . . .  . . . . . .  . . . .

0:19 - 0:22

e|-----------------------------------|
B|-----------------------------------|
G|--------------------------------9--| x1
D|-7-7-11-7-7-11-7-7-9-7-7-11-7-7---7|
A|-----------------------------------|
E|-----------------------------------|
   . . .  . . .  . . . . . .  . . . .

0:22 - 0:25

e|---------------------------------|
B|---------------------------------|
G|-----9-----9---------------------| x1
D|-7-7---7-7---7-7-9-7-7-11-7-7-7-7|
A|---------------------------------|
E|---------------------------------|
   . . . . . . . . . . . .  . . . .

0:25 - 0:31

e|-----------------------------------|
B|-----------------------------------|
G|-----------------------------------| x2
D|-7-7-11-7-7-11-7-7-9-7-7-11-7-7-7-7|
A|-----------------------------------|
E|-----------------------------------|
   . . .  . . .  . . . . . .  . . . .

0:31 - 0:34

e|-----------------------------------|
B|-----------------------------------|
G|-----------------------------------| x1
D|-7-7-11-7-7-11-7-7-9-7-7-11-7-7-7-7|
A|-----------------------------------|
E|-----------------------------------|
   . .    . .    . .   . .    . . . .

0:34 - 0:37

e|--------------------------------|
B|--------------------------------|
G|--------------------------------| x1
D|-7-7-7-7-7-7-7-7-7-7-7-7-7-7-7-7|
A|--------------------------------|
E|--------------------------------|
   . .   . .   . .   . .   . . . .

Guitar stops

Verse

1:02 - 1:08

"Where the guy grabs..."
e|-----------------------------------|
B|-----------------------------------|
G|-----------------------------------| x2
D|-7-7-11-7-7-11-7-7-9-7-7-11-7-7-7-7|
A|-----------------------------------|
E|-----------------------------------|
   . . .  . . .  . . . . . .  . . . .

1:08 - 1:12

"Cause the grave is..."
e|-----------------------------------|
B|-----------------------------------|
G|--------------------------------9--| x1
D|-7-7-11-7-7-11-7-7-9-7-7-11-7-7---7|
A|-----------------------------------|
E|-----------------------------------|
   . . .  . . .  . . . . . .  . . . .

1:12 - 1:15
 
"I gave, and I..."
e|---------------------------------|
B|---------------------------------|
G|-----9-----9---------------------| x1
D|-7-7---7-7---7-7-9-7-7-11-7-7-7-7|
A|---------------------------------|
E|---------------------------------|
   . . . . . . . . . . . .  . . . .

1:15 - 1:21

"Like the time that we..."
e|-----------------------------------|
B|-----------------------------------|
G|-----------------------------------| x2
D|-7-7-11-7-7-11-7-7-9-7-7-11-7-7-7-7|
A|-----------------------------------|
E|-----------------------------------|
   . . .  . . .  . . . . . .  . . . .

1:21 - 1:24

"But I'm here..."
e|-----------------------------------|
B|-----------------------------------|
G|-----------------------------------| x1
D|-7-7-11-7-7-11-7-7-9-7-7-11-7-7-7-7|
A|-----------------------------------|
E|-----------------------------------|
   . .    . .    . .   . .    . . . .

1:24 - 1:27

"Just give me a chance..."
e|--------------------------------|
B|--------------------------------|
G|--------------------------------| x1
D|-7-7-7-7-7-7-7-7-7-7-7-7-7-7-7-7|
A|--------------------------------|
E|--------------------------------|
   . .   . .   . .   . .   . . . .


Chorus

1:27 - 1:52

"And I don't know..."
e|----------------------------------------------------0--0--0--0--0--0--|
B|----------------------------------------------------12-12-12-12-12-12-|
G|-14-14-14-14-14-14-14-14-14-14-14-14-14-14-14-14-14-------------------| x4
D|-14-14-14-14-14-14-14-14-11-11-11-12-12-12-14-14-14-------------------|
A|----------------------------------------------------------------------|
E|----------------------------------------------------------------------|

(or) It depends on which you prefer :)

e|----------------------------------------------------0--0--0--0--0--0--|
B|----------------------------------------------------12-12-12-12-12-12-|
G|-14-14-14-14-14-14-14-14-14-14-14-14-14-14-14-14-14-------------------| x4
D|-x--x--x--x--x--x--x--x--11-11-11-12-12-12-14-14-14-------------------|
A|-12-12-12-12-12-12-12-12----------------------------------------------|
E|----------------------------------------------------------------------|

1:52 - 1:58

e|-----------------------------------|
B|-----------------------------------|
G|-----------------------------------| x2
D|-7-7-11-7-7-11-7-7-9-7-7-11-7-7-7-7|
A|-----------------------------------|
E|-----------------------------------|
   . . .  . . .  . . . . . .  . . . .

1:58 - 2:01

e|-----------------------------------|
B|-----------------------------------|
G|--------------------------------9--| x1
D|-7-7-11-7-7-11-7-7-9-7-7-11-7-7---7|
A|-----------------------------------|
E|-----------------------------------|
   . . .  . . .  . . . . . .  . . . .

2:01 - 2:04

e|---------------------------------|
B|---------------------------------|
G|-----9-----9---------------------| x1
D|-7-7---7-7---7-7-9-7-7-11-7-7-7-7|
A|---------------------------------|
E|---------------------------------|
   . . . . . . . . . . . .  . . . .

2:04 - 2:11

e|-----------------------------------|
B|-----------------------------------|
G|-----------------------------------| x2
D|-7-7-11-7-7-11-7-7-9-7-7-11-7-7-7-7|
A|-----------------------------------|
E|-----------------------------------|
   . . .  . . .  . . . . . .  . . . .

2:11 - 2:14

e|-----------------------------------|
B|-----------------------------------|
G|-----------------------------------| x1
D|-7-7-11-7-7-11-7-7-9-7-7-11-7-7-7-7|
A|-----------------------------------|
E|-----------------------------------|
   . .    . .    . .   . .    . . . .

2:14 - 2:17

e|--------------------------------|
B|--------------------------------|
G|--------------------------------| x1
D|-7-7-7-7-7-7-7-7-7-7-7-7-7-7-7-7|
A|--------------------------------|
E|--------------------------------|
   . .   . .   . .   . .   . . . .

Guitar stops

Verse 2

No Guitars

Chorus


2:42 - 3:07

"And I don't know..."
e|----------------------------------------------------0--0--0--0--0--0--|
B|----------------------------------------------------12-12-12-12-12-12-|
G|-14-14-14-14-14-14-14-14-14-14-14-14-14-14-14-14-14-------------------| x4
D|-14-14-14-14-14-14-14-14-11-11-11-12-12-12-14-14-14-------------------|
A|----------------------------------------------------------------------|
E|----------------------------------------------------------------------|

(or) It depends on which you prefer :)

e|----------------------------------------------------0--0--0--0--0--0--|
B|----------------------------------------------------12-12-12-12-12-12-|
G|-14-14-14-14-14-14-14-14-14-14-14-14-14-14-14-14-14-------------------| x4
D|-x--x--x--x--x--x--x--x--11-11-11-12-12-12-14-14-14-------------------|
A|-12-12-12-12-12-12-12-12----------------------------------------------|
E|----------------------------------------------------------------------|

Guitar stops

Synth break

Outro (Same as the intro and the 1st Verse) 

3:32 - 3:38

"Hold on..."
e|-----------------------------------|
B|-----------------------------------|
G|-----------------------------------| x2
D|-7-7-11-7-7-11-7-7-9-7-7-11-7-7-7-7|
A|-----------------------------------|
E|-----------------------------------|
   . . .  . . .  . . . . . .  . . . .

3:38 - 3:41

e|-----------------------------------|
B|-----------------------------------|
G|--------------------------------9--| x1
D|-7-7-11-7-7-11-7-7-9-7-7-11-7-7---7|
A|-----------------------------------|
E|-----------------------------------|
   . . .  . . .  . . . . . .  . . . .

3:41 - 3:44

e|---------------------------------|
B|---------------------------------|
G|-----9-----9---------------------| x1
D|-7-7---7-7---7-7-9-7-7-11-7-7-7-7|
A|---------------------------------|
E|---------------------------------|
   . . . . . . . . . . . .  . . . .

3:44 - 3:57

e|-----------------------------------|
B|-----------------------------------|
G|-----------------------------------| x4
D|-7-7-11-7-7-11-7-7-9-7-7-11-7-7-7-7|
A|-----------------------------------|
E|-----------------------------------|
   . . .  . . .  . . . . . .  . . . .

3:57 - 4:03

e|-----------------------------------|
B|-----------------------------------|
G|-----------------------------------| x2
D|-7-7-11-7-7-11-7-7-9-7-7-11-7-7-7-7|
A|-----------------------------------|
E|-----------------------------------|
   . . .  . . .  . . . . . .  . . . .

4:03 - 4:06

e|-----------------------------------|
B|-----------------------------------|
G|--------------------------------9--| x1
D|-7-7-11-7-7-11-7-7-9-7-7-11-7-7---7|
A|-----------------------------------|
E|-----------------------------------|
   . . .  . . .  . . . . . .  . . . .

4:06 - 4:09

e|---------------------------------|
B|---------------------------------|
G|-----9-----9---------------------| x1
D|-7-7---7-7---7-7-9-7-7-11-7-7-7-7|
A|---------------------------------|
E|---------------------------------|
   . . . . . . . . . . . .  . . . .

4:09 - 4:19

e|-----------------------------------|
B|-----------------------------------|
G|-----------------------------------| x3
D|-7-7-11-7-7-11-7-7-9-7-7-11-7-7-7-7|
A|-----------------------------------|
E|-----------------------------------|
   . . .  . . .  . . . . . .  . . . .

e|-----------------------------------|
B|-----------------------------------|
G|-----------------------------------| x3
D|-7-7-11-7-7-11-7-7-9-7-7-11-7-7-7-7|
A|-----------------------------------|
E|-----------------------------------|
   . . .  . . .  . . . . . .  . . . .

4:19 - 4:22

e|--------------------------------|
B|--------------------------------|
G|--------------------------------| x1
D|-7-7-7-7-7-7-7-7-7-7-7-7-7-7-7-7|
A|--------------------------------|
E|--------------------------------|
   . .   . .   . .   . .   . . . .

Guitar 2

Guitar 2 is pretty self explanitary. :)



Chorus

All Single Chords.

e|-0-0-0-0-|
B|-0-0-0-0-|
G|-2-7-6-6-| x4
D|-4-7-7-6-|
A|-4-5-7-7-|
E|-2---5-4-|

Chorus 2


e|-0-0-0-0-|
B|-0-0-0-0-|
G|-2-7-6-6-| x4
D|-4-7-7-6-|
A|-4-5-7-7-|
E|-2---5-4-|

Outro

All Single Chords, Listen to the music it'll be simple to pick up. :)

e|-0-0-0-0-0-0-0-0-0|
B|-0-0-0-0-0-0-0-0-0|
G|-6-2-7-6-7-6-4-6-6| x1
D|-7-4-7-7-7-7-4-7-7|
A|-7-4-5-7-5-4-2-7-7|
E|-5-2---5-------5-5|

Intro  - Guitar 1
Verse  - Guitar 1
Chorus - Guitar 1 + 2
Intro  - Guitar 1
Verse  - No Guitar
Chorus - Guitar 1 + 2
Bridge - No Guitar
Outro  - Guitar 1 + 2

Enjoy!

Please rate and Comment!

x


************************************
| .   Palm Mute
| /   slide up
| \   slide down
| h   hammer-on
| p   pull-off
| ~   vibrato
| +   harmonic
| x   Mute note
| b   Bend
| pb  Pre-bend
| br  Bend release
| pbr Pre-bend release
| brb Bend release bend

************************************
comments
We did not receive enough feedback on this tab! Please rate:
print report bad tab
1 2 3 4 5
I want to post or [tab]
guest
You may want to rate the tab now too:
select rating
Please do not post tabs as comments. Select "correction" instead!