Oops, an error
Loading. Please wait.

Everythings Magic bass

version 3
version 3

Whole song

Interactive

19,740 views 18 this week
5 commentsread comments
1 2 3 4 5
x 11
add to favorites
×
Save as Personal and add changes to this tab that will be seen only by you. Learn more ›
×
You can save this tab as Personal to edit and correct it or add notes. All changes will be seen only by you. Learn more »
launch autoscroll
font size
0
reset
guitar tuner
backing track
0:00
0:00
edit
Autoscroll
slow
fast
+/-
esc
set tempo
stop
Author
Verse
G|---------------------------------------------------------------------------|
D|---------------------------------------------------------------------------|
A|-----------------------------5/3-3-3-3/777--3-3-3------5/3-3-3-3/555/3-3-3-|
E|----1--1--1-----3/1--1--1--------------------------------------------------|

G|---------------------------------------------------------------------------|
D|---------------------------------------------------------------------------|
A|-----------------------------5/3-3-3-3/777--3-3-3------5/3-3-3-3/555/3-3-3-|
E|----3/1--1--1-----3/1--1--1------------------------------------------------|

Chorus
G|---------------------------------------------------------------------|
D|---------------------------------------------------------------------|
A|--3333333333333333-----------------------------------------888888888-|
E|------------------5555555555555555-3333333333333333-1111111----------|

it`s 12 not 1-2-   !!!!
G|------------------------------------------------------------------------------------------|
D|------------------------------------------------------------------------------------------|
A|--7777777777777777-8888888888888888-12121212121212121212121212121212-5-5-5-5555555555-3~~-|
E|------------------------------------------------------------------------------------------|

Verse
G|-----------------------------------------------------------------------|
D|-----------------------------------------------------------------------|
A|-----------------------------5/3-3-3/777--3-3-3------5/3-3-3/555/3-3-3-|
E|----1--1--1-----3/1--1--1----------------------------------------------|

G|---------------------------------------------------------------------------|
D|---------------------------------------------------------------------------|
A|-----------------------------5/3-3-3-3/777--3-3-3------5/3-3-3-3/555/3-3-3-|
E|----3/1--1--1-----3/1--1--1------------------------------------------------|

Chorus
G|---------------------------------------------------------------------|
D|---------------------------------------------------------------------|
A|--3333333333333333-----------------------------------------888888888-|
E|------------------5555555555555555-3333333333333333-1111111----------|

it`s 12 not 1-2-   !!!!
G|------------------------------------------------------------------------------------------|
D|------------------------------------------------------------------------------------------|
A|--7777777777777777-8888888888888888-12121212121212121212121212121212-5-5-5-5555555555-3~~-|
E|------------------------------------------------------------------------------------------|

Bridge
G|------------------------------------------------------------------------|
D|------------------------------------------------------------------------|
A|--3333333333333335------------------------------------------------------|
E|-------------------555555555555555555-3333333333333335-1111111111111111-|

Chorus
G|---------------------------------------------------------------------|
D|---------------------------------------------------------------------|
A|--3333333333333333-----------------------------------------888888888-|
E|------------------5555555555555555-3333333333333355-1111111----------|

it`s 12 not 1-2-   !!!!
G|--------------------------------------------------------------------------------------|
D|--------------------------------------------------------------------------------------|
A|--7777777777777766-8888888888888888-12121212121212121212121212121212-5-5-5-5555555555-|
E|--------------------------------------------------------------------------------------|

Tabbed by pavelardo

            
            
Suggest correction
Creating personal tab
Creating personal tab
You can edit any tab online and save it as your Personal.

You can edit, replace or remove any tab part or add personal notes – all changes will be seen only by you.

Personal tabs can be accessed anytime from any device, even offline.
Learn more »
comments
print report bad tab
5 comments total. Showing first comments.
+2 reply
minniza 10 Apr 14, 2008 11:31 AM

Nice tab=)

+2 reply
Alexionz 102 Apr 17, 2008 03:22 PM

This is the best tab for this song. You are the only one that I saw that got it right. Excellent job!

+1 reply
steffzeng 62 Feb 26, 2009 08:53 AM

chorus is a little wrong.. after that 12's, you should play 3rd fret on E (G) instead of 5th fret on A (D)

guest
You may want to rate the tab now too:
select rating
Wanna post a correction for this tab? Suggest correction