Oops, an error
Loading. Please wait.

Everythings Magic tab

version 3
version 3

Whole song

Interactive

Video

  • High quality, easy to follow video lesson.
30,960 views 3 this week
4 commentsread comments
1 2 3 4 5
x 8
add to favorites
×
Save as Personal and add changes to this tab that will be seen only by you. Learn more ›
×
You can save this tab as Personal to edit and correct it or add notes. All changes will be seen only by you. Learn more »
launch autoscroll
font size
0
reset
how to read this tab
guitar tuner
backing track
0:00
0:00
edit
Autoscroll
slow
fast
+/-
esc
set tempo
stop
the guys on here who tabbed it missed certain key-points.It's very similar to Blink 
Anthem part 2.

This is he way David's been playing it at all of the AVA shows.

Capo on 2nd fret(all notes relative to capo)

intro

e|-----------------------------|
B|6------4------3-----4--------|
G|-3-0-3--3-0-3--3-0-3-3-0-3---|
D|-----------------------------| (x2)
A|-----------------------------|
E|-----------------------------|


and then

e|-----------------------------|
B|6------4------3-----4--------|
G|-3--3---3--3---3--3--3--3----|
D|--3------3------3------3-----| (x2)
A|-----------------------------|
E|-----------------------------|

verses

e|-----------------------------|
B|6------4------3-----4--------|
G|-3-0-3--3-0-3--3-0-3-3-0-3---|
D|-----------------------------| (x2)
A|-----------------------------|
E|-----------------------------|


and then

e|-----------------------------|
B|6------4------3-----4--------|
G|-3--3---3--3---3--3--3--3----|
D|--3------3------3------3-----| (x2)
A|-----------------------------|
E|-----------------------------|

e|-----------------------------|
B|6------4------3-----4--------|
G|-3-0-3--3-0-3--3-0-3-3-0-3---|
D|-----------------------------| (x2)
A|-----------------------------|
E|-----------------------------|


and then

e|-----------------------------|
B|6------4------3-----4--------|
G|-3--3---3--3---3--3--3--3----|
D|--3------3------3------3-----| (x2)
A|-----------------------------|
E|-----------------------------|


chorus
e|-------------|
B|66-66-66-44--|
G|33-33-33-33--|
D|-------------|
A|-------------| (x16)
E|-------------|


End on

e|---|
E|---|
B|3~-|
G|3~-|
A|1~-|
E|---|

song order

intro
verse
chorus
verse
chorus
bridge (synth and drums only)
chorus

            
            
Suggest correction
Creating personal tab
Creating personal tab
You can edit any tab online and save it as your Personal.

You can edit, replace or remove any tab part or add personal notes – all changes will be seen only by you.

Personal tabs can be accessed anytime from any device, even offline.
Learn more »
comments
print report bad tab
4 comments total. Showing first comments.
0 reply
timmy3125 262 Nov 19, 2007 04:31 PM

dude fix the chorus i think you put it on the wrong strings, but other than that, its dead on and when you've got the
right chorus i'd give it a 5, good work dude, nice ear

0 reply
blakehell182 129 Nov 19, 2007 05:51 PM

oh shit dude ur right i ****ed up the
chorus!!!

chorus
e|-------------|
B|66-66-66-44--|
G|33-33-33-33--|
D|-------------|
A|-------------|
(x16)
E|-------------|


=] thats it. remember the capo on the 2nd fret!!

0 reply
trigger7bassist 10 Nov 20, 2007 03:59 PM

BLAKE YOU KICK ARSE!!!!!!!!!! YOUR BECOMING SUCK A GOOD LITTLE LEAD GUITARIST IN OUR BAND.....I WUV YOU....IN A TOTALY
GAY WAY.......!!!!

guest
You may want to rate the tab now too:
select rating
Wanna post a correction for this tab? Suggest correction