Oops, an error
Loading. Please wait.

Gift bass

version 1
version 1

Whole song

Interactive

2,184 views 1 this week
6 commentsread comments
1 2 3 4 5
x 4
add to favorites
×
Save as Personal and add changes to this tab that will be seen only by you. Learn more ›
×
You can save this tab as Personal to edit and correct it or add notes. All changes will be seen only by you. Learn more »
launch autoscroll
font size
0
reset
guitar tuner
edit
Autoscroll
slow
fast
+/-
esc
set tempo
stop
Author
Difficulty
-------------------------------------------------------------------------------
               The Gift (100% correct) - Angels and Airwaves
-------------------------------------------------------------------------------

Tabbed By : angelsbassist
e-mail: drummerboy196@hotmail.com

Tuning:

Intro                                                                     x2
G|--------------------------------------------------------------------------|
D|--------------------------------------------------------------------------|
A|--------------------------------------------------------------------------|
E|--------------------------------------------------------------------------|

Verse   "There's a strangest excitment today...."                         x4
G|--------------------------------------------------------------------------|
D|-----9>----------------------9>-------------------------------------------|
A|-6>------6h7>------2h4---6>------6h7>------2h4----------------------------|
E|--------------------------------------------------------------------------|

Pre-chorus   "And suddenly...."                                           x2
G|----------------------------------------------------------------------------|
D|-------7-9>-------------------7-9>------------------------------------------|
A|-2>-----------------7---2>-----------------4--------------------------------|
E|----------------------------------------------------------------------------|

Chorus    "And Now...."                                                   x2
G|--------------------------------------------------------------------------|
D|--------------------------------------------------------------------------|
A|-2-2-2-2-2-2-2-2--4-4-4-4-4-4-4-4--2-2-2-2-2-2-2-2--4-4-4-4-4-4-4-4-------|
E|--------------------------------------------------------------------------|

Pre-verse     (No singing)                                                x1
G|--------------------------------------------------------------------------|
D|-----9>------------------------9>-----------------------------------------|
A|-6>------7-9>--------2h4---6>------7-9>------2h4--------------------------|
E|--------------------------------------------------------------------------|

Verse    "If you ask I will do what you say...."                          x4
G|----------------------------------------------------------------------------|
D|-----9>----------------------9>---------------------------------------------|
A|-6>------6h7>------2h4---6>------6h7>------2h4------------------------------|
E|----------------------------------------------------------------------------|

Pre-chorus   "And suddenly...."                                           x2
G|----------------------------------------------------------------------------|
D|-------7-9>-------------------7-9>------------------------------------------|
A|-2>-----------------7---2>-----------------4--------------------------------|
E|----------------------------------------------------------------------------|

Chorus    "And Now...."                                                   x4
G|--------------------------------------------------------------------------|
D|--------------------------------------------------------------------------|
A|-2-2-2-2-2-2-2-2--4-4-4-4-4-4-4-4--2-2-2-2-2-2-2-2--4-4-4-4-4-4-4-4-------|
E|--------------------------------------------------------------------------|

Bridge   "Oh, Oh-oh, oh-oh, oh-oh, yah...."                               x2
G|--------------------------------------------------------------------------|
D|--------------------------------------------------------------------------|
A|-6>--7>-------2>--4>---------6>--7>-------2>--4>--------------------------|
E|--------------------------------------------------------------------------|

Chorus    "And Now...."                                                   x4
G|--------------------------------------------------------------------------|
D|--------------------------------------------------------------------------|
A|-2-2-2-2-2-2-2-2--4-4-4-4-4-4-4-4--2-2-2-2-2-2-2-2--4-4-4-4-4-4-4-4-------|
E|--------------------------------------------------------------------------|

Outro  "May the world we know disappear"(Play right inline with "The World")
G|--------------------------------------------------------------------------|
D|--7h9>--------------------------------------------------------------------|
A|--------------------------------------------------------------------------|
E|--------------------------------------------------------------------------|

  "Oh, Oh-oh, Oh-oh, Oh-oh, Yah!...."                                     x2
G|--------------------------------------------------------------------------|
D|-----------------------------------------------------7h9>-----------------|
A|----2h4\2-----------------------------------------------------------------|
E|--------------------------------------------------------------------------|

That's it!  Im pretty sure it's exactly right!  But email my if I made a mistake!  Please rate!

| /  slide up
| \  slide down
| h  hammer-on
| p  pull-off
| ~  vibrato
| +  harmonic
| x  Mute note
===============================================================================

            
            
Suggest correction
Creating personal tab
Creating personal tab
You can edit any tab online and save it as your Personal.

You can edit, replace or remove any tab part or add personal notes – all changes will be seen only by you.

Personal tabs can be accessed anytime from any device, even offline.
Learn more »
comments
print report bad tab
6 comments total. Showing first comments.
0 reply
angelsbassist 31 Jul 14, 2006 12:06 PM

Im pretty sure this is right, except, i made a mistake on the pre-chorus where it says "7", it should be a "4". thanks!

0 reply
Averna_22 10 Jul 14, 2006 03:06 PM

wow nice tab

0 reply
Averna_22 10 Jul 14, 2006 03:07 PM

ill give you a five

guest
You may want to rate the tab now too:
select rating
Wanna post a correction for this tab? Suggest correction