Oops, an error
Loading. Please wait.

Good Day bass

version 3
version 3

Whole song

Interactive

89 views 1 this week
no commentswrite comment
1 2 3 4 5
3 more votes to show rating
add to favorites
×
Save as Personal and add changes to this tab that will be seen only by you. Learn more ›
×
You can save this tab as Personal to edit and correct it or add notes. All changes will be seen only by you. Learn more »
launch autoscroll
font size
0
reset
guitar tuner
edit
Autoscroll
slow
fast
+/-
esc
set tempo
stop
Author
Bassist: Ryan Sinn
Band: Angels and Airwaves
Song: Good Day
Tabbed by: Sammy (that's me, with thanks to Matt and Nick Allen, whose work I have
collaborated and tweaked)

Standard Tuning (EADG)

Pull off = p
Hammer on= h
Slide up = /
Let ring = ~

The time markings I put here are relative to the album copy. 
Depending on how you obtained your copy of the song, you may have a few extra
seconds silence at the start of your song, rendering the time markings basically
useless. 

(whispering)(00:00)

Intro (00:06)
G------------------------------------|
D------------------------------------|
A------------------------------6h766-|
E--77777--44444--2/77777--4444-------|

Verse 1 "I shoulda turned back..." (00:18)
G----------------------------------------------------------------------|
D----------------------------------------------------------------------|
A---------------------------------------------------6h766--------------|
E--77777--44444--2/77777--44444--2h422/77777--44444-------77777--44444-|

Pre-Chorus (x2) "Oh I need you now" (00:43)
G-----------------------|
D-----------------------|
A-----------------------|
E--2/7~--6~----4~----6~-|

Chorus 1 (x1)"I think I like today" (01:08)
G---
D---
A---
E-7~

There'll be a small guitar interlude, with no bass. (01:20)
Bass comes back in on second verse.

Verse 2 "True love is something..." (01:27)
G----------------------------------------------------------------|
D----------------------------------------------------------------|
A----------------------------6h766-------------------------------|
E-77777-44444-2/77777--44444-------2/77777--44444--2/77777-44444-|

Pre-Chorus (x2) "Oh I need you now" (01:52)
G-----------------------|
D-----------------------|
A-----------------------|
E--2/7~--6~----4~----6~-|

Chorus 2(x2) "I think I like today!" (02:17)
G--------------------------------------|
D--------------------------------------|
A-------9-7p6~6~6~6h7------------------|
E-7~7~7~--------------4~4~4~4~/6~6~6~6-|

Bridge Part 1 (x2) "Dada da da" (02:42)
G---------------------------------------------------------------|
D---------------------------------------------------------------|
A-------------997766666666666667--------------------------------|
E-77777777777-------------------444444444444-2/6666666666666666-|

Bridge Part 2 (x1) (03:07 - 03:31)
G------------------------------------11~---9p8h9--11~--9p8h9-8~-4~------|
D-----------------------------------------------------------------------|
A-----------------------------------------------------------------------|
E-7~------------7~------------7~----------------------------------------|

Chorus 3 (x4) "I think I like today!" (03:31)
G---------------------------------------------------------------|
D---------------------------------------------------------------|
A-------------997766666666666667--------------------------------|
E-77777777777-------------------444444444444-2/6666666666666666-|

Ending Note (4:21)
G---
D---
A---
E-7~


            
            
Suggest correction
Creating personal tab
Creating personal tab
You can edit any tab online and save it as your Personal.

You can edit, replace or remove any tab part or add personal notes – all changes will be seen only by you.

Personal tabs can be accessed anytime from any device, even offline.
Learn more »
Give kudos to tab author, rate the tab!
1 2 3 4 5
comments
print report bad tab
guest
You may want to rate the tab now too:
select rating
Wanna post a correction for this tab? Suggest correction