Oops, an error
Loading. Please wait.

Good Day tab

version 3
version 3

Whole song

Interactive

1,429 views 1 this week
2 commentsread comments
1 2 3 4 5
2 more votes to show rating
add to favorites
×
Save as Personal and add changes to this tab that will be seen only by you. Learn more ›
×
You can save this tab as Personal to edit and correct it or add notes. All changes will be seen only by you. Learn more »
launch autoscroll
font size
0
reset
how to read this tab
guitar tuner
edit
Autoscroll
slow
fast
+/-
esc
set tempo
stop
Author
This is the way they played it at the electric ballroom,so thats why it sounds 
a capo on the seconed fret so all of the numbers are starting at the capo.This is also how my 
plays it.

Tabbed by Blakehell182

Guitar 1-David Kennedy (lead)
Guitar 2-Tom Delonge (rythym)


Guitar 1 w/ slight distortion and slight delay (reverb)

E|----------------------------------|
B|----------------------------------|
G|----------------------------------|
D|77-777--77-777--77-777--77-7777---|
A|77-777--77-777--77-777--77-7777---|
E|55-555--77-777--99-555--77-7777---|\
                                      \
keyboard arranged for guitar           \ (x8)
                                       /
E|------------------------------------|  /
B|--11----13-15\11--(17\13)-----------|
G|11---11-----------------------------|
D|------------------------------------|
A|------------------------------------|
E|------------------------------------|

chorus

E|----------------------------------|
B|----------------------------------|
G|----------------------------------|
D|9~~~~~~~9~~~~~~~9~~~~~~~9~~~~~~~~-|
A|9~~~~~~~9~~~~~~~9~~~~~~~9~~~~~~~~-|
E|7~~~~~~~6~~~~~~~7~~~~~~~6~~~~~~~~-|

post chorus

E|2~~~~~~~~0~~~~~~~~~2~~~~~~~~0~~~~~|
B|3~~~~~~~~4~~~~~~~~~3~~~~~~~~2~~~~~|
G|4~~~~~~~~4~~~~~~~~~4~~~~~~~~4~~~~~|
D|4~~~~~~~~4~~~~~~~~~4~~~~~~~~4~~~~~|
A|2~~~~~~~~2~~~~~~~~~2~~~~~~~~2~~~~~|
E|0~~~~~~~~0~~~~~~~~~0~~~~~~~~0~~~~~|


pre-verse

guitar 1 w/ slight distortion and slight delay (reverb)

E|----------------------------------|
B|----------------------------------|
G|----------------------------------|
D|77-777--77-777--77-777--77-7777---| (x2)
A|77-777--77-777--77-777--77-7777---|
E|55-555--77-777--99-555--77-7777---|


verse two

Guitar 1 w/ slight distortion and slight delay (reverb)

E|----------------------------------|
B|----------------------------------|
G|----------------------------------|
D|77-777--77-777--77-777--77-7777---|
A|77-777--77-777--77-777--77-7777---|
E|55-555--77-777--99-555--77-7777---|\
                                      \
keyboard arranged for guitar           \ (x6)
                                       /
E|------------------------------------|  /
B|--11----13-15\11--(17\13)-----------|
G|11---11-----------------------------|
D|------------------------------------|
A|------------------------------------|
E|------------------------------------|


chorus

E|----------------------------------|
B|----------------------------------|
G|----------------------------------|
D|9~~~~~~~9~~~~~~~9~~~~~~~9~~~~~~~~-|
A|9~~~~~~~9~~~~~~~9~~~~~~~9~~~~~~~~-|
E|7~~~~~~~6~~~~~~~7~~~~~~~6~~~~~~~~-|

post chorus

guitar 1 w/ distortion

E|--------------------|
B|55555555-44444444---|
G|44444444-33333333---|
D|44444444-44443333---|   (x2)
A|22222222-11111111---|
E|--------------------|

Bridge ("da da da")

E|--------------------------------------|
B|55555555-44444444-44444444-44444444---|
G|44444444-33333333-44444444-33333333---|
D|44444444-44443333-44444444-44443333---| (x2)
A|22222222-11111111-22222222-11111111---|
E|--------------------------------------|


interlude (guitar one plays w/ clean tone) *repeat till the end of the song*

E|14-14-12-12-11-11-9-9-11-7--7-7-7-7----------------------------------|
B|---------------------------7-7-7-7-7---------------------------------|
G|-------------------------------------11-11-9-9-8-8-6-6-8-4-4-4-4-4---|
D|----------------------------------------------------------4-4-4-4-4--|
A|---------------------------------------------------------------------|
E|---------------------------------------------------------------------|

Final Chorus (guitar 2 doesnt play this till guitar 1 plays twice.)

guitar 2 w/ distortion

E|--------------------------------------|
B|55555555-44444444-44444444-44444444---|
G|44444444-33333333-44444444-33333333---|
D|44444444-44443333-44444444-44443333---| (repeat till the end)
A|22222222-11111111-22222222-11111111---|
E|--------------------------------------|

            
            
Suggest correction
Creating personal tab
Creating personal tab
You can edit any tab online and save it as your Personal.

You can edit, replace or remove any tab part or add personal notes – all changes will be seen only by you.

Personal tabs can be accessed anytime from any device, even offline.
Learn more »
Give kudos to tab author, rate the tab!
1 2 3 4 5
comments
print report bad tab
2 comments total.
0 reply
trigger7bassist 10 Aug 09, 2007 06:40 PM

great tab,it sounds perfect.can you put up do it for me now?

0 reply
Squirrel1993 506 Mar 10, 2009 02:47 PM

AVA always uses capos on their guitars...but theirs have like no need for them what so ever...i wonder why...hmm

guest
You may want to rate the tab now too:
select rating
Wanna post a correction for this tab? Suggest correction