Oops, an error
Loading. Please wait.

Hallucinations bass

version 1
version 1

Whole song

Interactive

3,276 views 1 this week
no commentswrite comment
1 2 3 4 5
x 4
add to favorites
×
Save as Personal and add changes to this tab that will be seen only by you. Learn more ›
×
You can save this tab as Personal to edit and correct it or add notes. All changes will be seen only by you. Learn more »
launch autoscroll
font size
0
reset
guitar tuner
edit
Autoscroll
slow
fast
+/-
esc
set tempo
stop
Tabbed By : Michael dav
e-mail: moofybot@live.com

I'll really appreciate it if you guys sign up under this link:

           http://www.points2shop.com/?ref=nollie132

i might have gotten the Outro wrong but everything else is good!
if there's anything wrong email me.
please comment and rate :)
i guess I'm the first one to tab this and post it up on the net! :D

Tuning:EADG

[Starts: 0:50]                                                             x2
G|---------------------------------------------------------------------------|
D|---------------------------------------------------------------------------|
A|-333333333333333-555555555555555-88888888----------------------------------|
E|---------------------------------------------------------------------------|
                                                                           x1
G|---------------------------------------------------------------------------|
D|---------------------------------------------------------------------------|
A|----------------------88888888---------------------------------------------|
E|-555555555555-333333333----------------------------------------------------|
                                                                           x1
G|---------------------------------------------------------------------------|
D|---------------------------------------------------------------------------|
A|-3333333333333333-555555555555555-88888888---------------------------------|
E|---------------------------------------------------------------------------|
                                                                           x4
G|-----------------------------------------------------------------------------|
D|-----------------------------------------------------------------------------|
A|-3\8(x1)-888888888-33333333333333-1010101010101010---------------------------|
E|-----------------------------------------------------------------------------|
                                                                           x2
G|---------------------------------------------------------------------------|
D|---------------------------------------------------------------------------|
A|-3--5555555555-7-10-8888888888---------------------------------------------|
E|--3------------------------------------------------------------------------|
                                                                           x2
G|---------------------------------------------------------------------------|
D|---------------------------------------------------------------------------|
A|-3333333333333333-555555555555555-88888888---------------------------------|
E|---------------------------------------------------------------------------|
                                                                           x4
G|-----------------------------------------------------------------------------|
D|-----------------------------------------------------------------------------|
A|-3\8(x1)-888888888-33333333333333-1010101010101010---------------------------|
E|-----------------------------------------------------------------------------|
                                                                           x4
G|---------------------------------------------------------------------------|
D|---------------------------------------------------------------------------|
A|-3--5555555555-7-10-8888888888---------------------------------------------|
E|--3------------------------------------------------------------------------|

*Break*

Start[3:45]                                                                x4
G|---------------------------------------------------------------------------|
D|---------------------------------------------------------------------------|
A|-3--5555555555-7-10-8888888888---------------------------------------------|
E|--3------------------------------------------------------------------------|
                                                                           x2
G|-----------------------------------------------------------------------------|
D|-----------------------------------------------------------------------------|
A|-3--5555555555-777777--------------------------------------------------------|
E|--3------------------88-1111-------------------------------------------------|

Outro:                                                                     x3
G|-----------------------------------------------------------------------------|
D|-----------------------------------------------------------------------------|
A|----2---2-3-2----------------------------------------------------------------|
E|-11---1----------------------------------------------------------------------|

            
            
Suggest correction
Creating personal tab
Creating personal tab
You can edit any tab online and save it as your Personal.

You can edit, replace or remove any tab part or add personal notes – all changes will be seen only by you.

Personal tabs can be accessed anytime from any device, even offline.
Learn more »
comments
print report bad tab
guest
You may want to rate the tab now too:
select rating
Wanna post a correction for this tab? Suggest correction