Oops, an error
Loading. Please wait.

Hallucinations tab

version 2
version 2

Whole song

Interactive

35,607 views 1 this week
7 commentsread comments
1 2 3 4 5
x 7
add to favorites
×
Save as Personal and add changes to this tab that will be seen only by you. Learn more ›
×
You can save this tab as Personal to edit and correct it or add notes. All changes will be seen only by you. Learn more »
launch autoscroll
font size
0
reset
how to read this tab
guitar tuner
edit
Autoscroll
slow
fast
+/-
esc
set tempo
stop
-------------------------------------------------------------------------------
			     HALLUCINATIONS - Angels & Airwaves
					     off "Love" (2010)
-------------------------------------------------------------------------------
Tabbed by: Kevin Heiland (Kevy Absolution)
Email: kevin.heiland@gmail.com
Note: Simple song, but really fun to play still. I'm excited to tab out this
album after it's release on February 14th, 2010.

Tuning: Standard

e|-----------|-----|-----|-----|
B|-----------|-----|-----|-----|
G|--10-------|--5--|-----|--7--|
D|--10--3----|--5--|--5--|--7--|
A|--8---3----|--3--|--5--|--5--|
E|------1----|-----|--3--|-----|
    F5 (alt)    C5    G5    D5


(Guitar Enters at 0:50)

Lead Intro Lick:
e|----------------------------------------|
B|----5---6---5-------3---6---------------|
G|--5---5---5---5---5---5---5-4-5---------|
D|----------------------------------------|
A|----------------------------------------|
E|----------------------------------------| x4

Rhythm Intro Chords(Listen for timing):
e|------------------------------------------|
B|------------------------------------------|
G|---5--7--10--5--7--10--2--------5--7--10--|
D|---5--7--10--5--7--10--2--5--3--5--7--10--|
A|---3--5--8---3--5--8---0--5--3--3--5--8---|
E|--------------------------3--1------------|

Rhythm Chord Changes:

       F5 
And you look real close
              C5                G5       
Cross the lines and the roads
      F5
It is there to decode
              C5                  G5
What you thought was a ghost
        F5         C5
Or a spark to explode
           C5             G5
It's the start of the show
           F5                      C5
It's the part you love the most
                 C5          G5
When your heart will implode within

C5                  D5 			C5 G5 F5
Do you believe in hallucinations, silly dreams or imaginations
C5                  D5
Don't go away cause I feel you this time
C5        G5     F5
Don't go away cause I need you there this time

(Intro Lick and Chords)

           F5
As the rain floats home
         C5            G5
Carry us back to shore
                F5
And up the mountainous coast 
                C5              G5
Where the sun starts to glow
              F5               C5
From our head to our toes
          C5                G5
To the stars that we know
              F5            C5
And with you as my host
         C5        G5
It will keep us afloat again

(Chorus x2)

(Guitar tacet)

The silence is taxing
I'm waiting for something
There's images of love and war
And everything's here to explore
It's all alike, unusual, a different place
But beautiful and it is not quite as it seems
I hear the children's laughs and screams

It's beautiful
So beautiful
It's beautiful

(Chorus x2)

===============================================================================
Suggest correction
Creating personal tab
Creating personal tab
You can edit any tab online and save it as your Personal.

You can edit, replace or remove any tab part or add personal notes – all changes will be seen only by you.

Personal tabs can be accessed anytime from any device, even offline.
Learn more »
comments
print report bad tab
7 comments total. Showing first comments.
+1 reply
greenguy_182 30 Dec 27, 2009 01:24 PM

why am i the first comment? anyway awesum tab! i think it sounds purdy perfect

+3 reply
awisinger 52 Dec 28, 2009 10:26 AM

This sounds good, but you should probably add what an F5 chord is for the guitarist who don't happen to know those. Might be helpful but other than that it is a very good tab.

0 reply
Kenhow2 20 Jan 06, 2010 11:11 AM

Sounds Great! but as awisinger said, you should probably add what an F5,C5,G5,D5 is. Cause I personally have no idea what they are.

guest
You may want to rate the tab now too:
select rating
Wanna post a correction for this tab? Suggest correction