Oops, an error
Loading. Please wait.

Heaven intro tab

version 1
version 1

Intro

Whole song

Interactive

7,133 views 6 this week
2 commentsread comments
1 2 3 4 5
x 5
add to favorites
×
Save as Personal and add changes to this tab that will be seen only by you. Learn more ›
×
You can save this tab as Personal to edit and correct it or add notes. All changes will be seen only by you. Learn more »
launch autoscroll
font size
0
reset
how to read this tab
guitar tuner
edit
Autoscroll
slow
fast
+/-
esc
set tempo
stop
Go with an "adventure" sound. This song is kind of Valkyrie Missile Meets Adventure, 
feel and a  great song.

Two Guitars in the band but there are three guitar tracks.

Guitar One:
pretty much every two bars play the notes quickly five times.
Comes in at (0:30)

e|------------------------------------|-------------------|---------------|
B|------------------------------------|-------------------|---------------|
G|------------------------------------|-------------------|---------------|
D|-77777------------------------------|-77777-------------|---------------|
A|-77777------------------------------|-77777-------------|---------------|
E|-55555------------------------------|-55555-------------|---------------|

Play 8 times. On the eigth time strum the "A" note once and let it ring out (rather than 
it five times).

Guitar Two:(0:43-1:16)
e|------------------------------------|
B|------------------------------------|
G|------------------------------------|
D|-11---11--14--9----11---------------|
A|---12------------12--12-------------|
E|------------------------------------|

Guitar 3: (0:58-1:50)

The more delay you have, the less you have to play each note. I usually play a bit more 
give it more flavor but this is the bare minumum.

e|------------------|
B|------------------|
G|-99999-66-77------|
D|------------77----|
A|------------------|
E|------------------|


I have to go for now, but ill do the rest of the song later.

any corrections comments email me

scooterscoots@hotmail.com

            
            
Suggest correction
Creating personal tab
Creating personal tab
You can edit any tab online and save it as your Personal.

You can edit, replace or remove any tab part or add personal notes – all changes will be seen only by you.

Personal tabs can be accessed anytime from any device, even offline.
Learn more »
comments
print report bad tab
2 comments total.
+1 reply
blinkerdude182 30 Nov 22, 2007 02:21 PM

e|--------------------------------------|
B|--------------------------------------|
G|--------------------------------
------|
D|-11---11--14---------12---------------|
A|---12---------14---11--11-------------|
E|-----------------------
---------------|

instead
of

e|------------------------------------|
B|------------------------------------|
G|------------------------------
------|
D|-11---11--14--9----11---------------|
A|---12------------12--12-------------|
E|---------------------------
---------|

0 reply
xKiNGFORaDAYx 10 Mar 26, 2011 01:33 AM

Tom ACTUALLY plays the 'Guitar Two:(0:43-1:16)' riff like this...

e|--------------------------------------|
B|--------------------------------------|
G|-6---6-9-----7------------------------|
D|---7----9--6---6----------------------|
A|--------------------------------------|
E|--------------------------------------

He plays it here with bass notes:
http://www.youtube.com/watch?v=h3t60O40xhw

guest
Wanna post a correction for this tab? Suggest correction