Oops, an error
Loading. Please wait.

I-Empire Bass Tab

version 1
version 1

Album

2,412 views 1 this week
1 commentread comment
1 2 3 4 5
please rate
add to favorites
launch autoscroll
font size
0
reset
guitar tuner
Tab Pro tools
  • play this tab
  • loop segment
  • change instrument
  • show fretboard
  • metronome
×
Best way to learn
"I-empire"
Autoscroll
slow
fast
+/-
esc
set tempo
stop
Difficulty
novice
-------------------------------------------------------------------------------
                  I-EMPIRE ANGELS AND AIRWAVES
-------------------------------------------------------------------------------

1. Call to arms

Intro open E----0-0-0-0-0-0-0


--------------------------------|
--------------------------------|
-----------------44444444444444-|
-0000000000000000---------------| duration and then goes into

--------------------------------------------|
--------------------------------------------|
-2/777777777--7-----------------------------| let ring
----------------0----0----------------------| let ring

He Is Hitting An "E","A",C#,A

---------------------------------------------------------------------------|
---------------------------------------------------------------------------|
---------     00000000000000000000000000 4444444444444444 000000000000-----|
00000000000000-------------------------------------------------------------|

break ---------------------------------------------------|
---------------------------------------------------------|
------7/0------------------------------- slide down to 0-|
------------0--------------------------------------------| let ring out

no bass in verse 2 until half way through
verse-------------------

chorus
bridge
chorus

listen for timing on verse


4. Love Like Rockets

Intro
|-------------------------------------------|
|-------------------------------------------|
|--5~----7~----9~----10~--------------------|
|-------------------------------------------|

1:16
Verse
|-------------------------------------------|
|-------------------------------------------|
|--55-55-5--77-77-7--99-99-9--1010-1010-10--|
|-------------------------------------------|





2:16
Chorus
|-------------------------------------------|
|--4---4-5---5-7--7-5-----------------------| x2
|---5-----5-----5----5----------------------|
|-------------------------------------------|

2:39
Pre-Verse
|--------11-12---12-14--14h16-12------------|
|--/16-12-----12------12--------12\---------|
|-------------------------------------------|
|-------------------------------------------|

2:55
Verse
3:18
Chorus

Post-Chorus
3:41
|-------------------------------------------|
|--/12~-------------------------------------|
|-------------------------------------------|
|-------------------------------------------|

Outro
3:49
|-------------------------------------------|
|-------------------------------------------| till end
|--55555555--99--77777777--99999999---------|
|---------------------------------33333333--|

5.Sirens

Verse
G---7--7-7--7--7-7--7--7--9--9--6--|
D-55-55-5-99-99-9-77-77-77-77-77-7-| x6
A----------------------------------|
E----------------------------------|

Pre-chorus
G-------------------------------------------------|
D-------------------------------------------------| x4
A-----99-9-----1010-10------12-121212121212121212-|
E-222/-----333/--------5555/----------------------|

Chorus
G--------------------------------------------------------------------|
D--------------------------------------------------------------------| x2
A-5555555555555557-----------------2222222222222225------------------|
E------------------333333333333323------------------3333333333333335-|

Verse x6
Pre-chorus x4
Chorus x2




Bridge
G---------------------------------------------------7--7-7--7--7-7--7--7-7---------|
D-5---/9---9h11-7---7-5-4-5---/9---9h11-7----55-4-55-55-5-99-99-9-77-77-7----------|
A-------------------------------------------------------------------------00000000-|
E----------------------------------------------------------------------------------|

G---7--7-7--7--7-7--7--7-7-----------------|
D-55-55-5-99-99-9-77-77-7-777777777777797\-|
A------------------------------------------|
E------------------------------------------|

Chorusx4

End on
G----|
D----|
A-5--|
E----|

6. Secret Crowds
Intro: 0:27

(its 17 not 1 7)
G|---------------------------------------------------|
D|---------------------------------------------------|
A|------------1/17-17-17-17-17-17-17-17-17-17-17-17--|
E|---------------------------------------------------|

slide down from the 17 straight onto
G|-----------------------------------------------------------------------|
D|-----------------------------------------------------------------------|
A|-------------------------9/-5-5-555/4-444------------------------------|x7
E|------------------------------------------3----------------------------|

Verse 0:56 if i had my own world

G|-----------------------------------------------------------------------|
D|-----------------------------------------------------------------------|
A|--5~----4/7~----5/9/5~------4/10~---10h12--5---------------------------|
E|-----------------------------------------------------------------------|

1:21

G|-----------------------------------------------------------------------|
D|-----------------------------------------------------------------------|
A|--555555555555---7777777777--55555555555555h4/10101010101010101010h12--|
E|-----------------------------------------------------------------------|

1:34
G|-----------------------------------------------------------------------|
D|-----------------------------------------------------------------------|
A|--555555555555---7777777777--99999999999999h4/10101010101010101010/5---|
E|-----------------------------------------------------------------------|

Chorus 1:45

G|-----------------------------------------------------------------------|
D|-----------------------------------------------------------------------|
A|--555555555555555555555555--------------10101010101010101010-----------|x2
E|--------------------------555555555555---------------------------------|


G|-----------------------------------------------------------------------|
D|-----------------------------------------------------------------------|
A|--555555555555555555555555--7777777777--10101010101010101010-----------|
E|-----------------------------------------------------------------------|


G|-----------------------------------------------------------------------|
D|-----------------------------------------------------------------------|
A|--555555555555555555555555--------------10101010101010101010-----------|
E|--------------------------555555555555---------------------------------|



Pre verse

G|-----------------------------------------------------------------------|
D|-----------------------------------------------------------------------|
A|-------------------------9/-5-5-555/4-444------------------------------|x7
E|------------------------------------------3----------------------------|

Verse again

then chorus

then little bridge with no bass just tom singing and atom on drums then 

4:03

(its 17 not 1 7)
G|---------------------------------------------------|
D|---------------------------------------------------|
A|------------1/17-17-17-17-17-17-17-17-17-17-17-17--|
E|---------------------------------------------------|

then continue wid the chorus and finish on

G|---------------------------------------------------|
D|---------------------------------------------------|
A|------------5~~~~~~--------------------------------|
E|---------------------------------------------------|

7. Star of Bethlehem
Intro (4:00 - 4:15)

G|---------------------------------------------------------------------------|
D|---------------------------------------------------------------------------|
A|-0-0-0-0-0-0-0-0-2-2-2-2-2-2-2-2-4-4-4-4-4-4-4-4-5-5-5-5-5-5-5-4-----------|
E|---------------------------------------------------------------------------|x2

Verse (4:15 - 4:45)
G|---------------------------------------------------------------------------|
D|---------------------------------4-4-4-4-4-4-4/5---------------------------|
A|-0-0-0-0-0-0-0-0-2-2-2-2-2-2-2-2-----------------5-5-5-5-5-5-4-------------|
E|---------------------------------------------------------------------------|

G|---------------------------------------------------------------------------|
D|---------------------------------------------------------------------------|
A|-0-0-0-0-0-0-0-0-2-2-2-2-2-2-2-2-----------------5-5-5-5-5-5-4-------------|
E|---------------------------------2-2-2-2-2-2-2-2---------------------------|



G|---------------------------------------------------------------------------|
D|---------------------------------4-4-4-4-4-4-4/5---------------------------|
A|-0-0-0-0-0-0-0-0-2-2-2-2-2-2-2-2-----------------5-5-5-5-5-5-4-------------|
E|---------------------------------------------------------------------------|

G|---------------------------------------------------------------------------|
D|---------------------------------------------------------------------------|
A|-0-0-0-0-0-0-0-0-2-2-2-2-2-2-2-2-----------------5-5-5-5-5-5-4-------------|
E|---------------------------------2-2-2-2-2-2-2-2---------------------------|

Pre-Chorus (4:45 - 5:00)
G|---------------------------------------------------------------------------|
D|---------------------------------0~----------------------------------------|
A|-0~------------------------------------------------------------------------|
E|---------------------------------------------------------------------------|x2

Chorus (5:00 - 5:14)

G|---------------------------------------------------------------------------|
D|---------------------------------------------------------------------------|
A|-0-0-0-0-0-0-0-0-2-2-2-2-2-2-2-2-4-4-4-4-4-4-4-4-5-5-5-5-5-5-5-4-----------|
E|---------------------------------------------------------------------------|x2

Verse (5:14 - 5:44)

G|---------------------------------------------------------------------------|
D|---------------------------------4-4-4-4-4-4-4/5---------------------------|
A|-0-0-0-0-0-0-0-0-2-2-2-2-2-2-2-2-----------------5-5-5-5-5-5-4-------------|
E|---------------------------------------------------------------------------|

G|---------------------------------------------------------------------------|
D|---------------------------------------------------------------------------|
A|-0-0-0-0-0-0-0-0-2-2-2-2-2-2-2-2-----------------5-5-5-5-5-5-4-------------|
E|---------------------------------2-2-2-2-2-2-2-2---------------------------|

G|---------------------------------------------------------------------------|
D|---------------------------------4-4-4-4-4-4-4/5---------------------------|
A|-0-0-0-0-0-0-0-0-2-2-2-2-2-2-2-2-----------------5-5-5-5-5-5-4-------------|
E|---------------------------------------------------------------------------|

G|---------------------------------------------------------------------------|
D|---------------------------------------------------------------------------|
A|-0-0-0-0-0-0-0-0-2-2-2-2-2-2-2-2-----------------5-5-5-5-5-5-4-------------|
E|---------------------------------2-2-2-2-2-2-2-2---------------------------|

Pre-Chorus (5:44 - 5:59)

G|---------------------------------------------------------------------------|
D|---------------------------------0~----------------------------------------|
A|-0~------------------------------------------------------------------------|
E|---------------------------------------------------------------------------|x2

Chorus (5:59 - 6:29)

G|---------------------------------------------------------------------------|
D|---------------------------------------------------------------------------|
A|-0-0-0-0-0-0-0-0-2-2-2-2-2-2-2-2-4-4-4-4-4-4-4-4-5-5-5-5-5-5-5-4-----------|
E|--------------------------------------------------------------------------|x4

Interlude (6:29 - 6:59)

G|---------------------------------2~----------------------------------------|
D|-------------------------------------------------2~------------------------|
A|-4~--------------5~--------------------------------------------------------|
E|---------------------------------------------------------------------------|

G|-6~--------------7~------------------2~------------------------------------|
D|-------------------------------------------------2~------------------------|
A|-~-------------------------------------------------------------------------|
E|--------------------------------------------------------------------------|x3



Final Choruses (6:59 - 7:58)
G|---------------------------------------------------------------------------|
D|---------------------------------------------------------------------------|
A|-0-0-0-0-0-0-0-0-2-2-2-2-2-2-2-2-4-4-4-4-4-4-4-4-5-5-5-5-5-5-5-4-----------|
E|---------------------------------------------------------------------------|x8

End (7:58 - 8:00)

G|---------------------------------------------------------------------------|
D|---------------------------------------------------------------------------|
A|-0~---0~---0~--------------------------------------------------------------|
E|---------------------------------------------------------------------------|

9. Lifeline
INTRO (x2)
G|-------------------------------------------------------------------------|
D|-------------------------------------------------------------------------|
A|-2/45555555555555555-4444444444444444-2222222222222222-------------------|
E|-------------------------------------------------------3333333333333333--|

  VERSE (x2)
G|-------------------------------------------------------------------------|
D|-------------------------------------------------------------------------|
A|-2/45555555555555555-4444444444444444-2222222222222222-------------------|
E|-------------------------------------------------------3333333333333333--|

  CHORUS (x4)
G|-------------------------------------------------------------------------|
D|-------------------------------------------------------------------------|
A|-2/45555555555555555-4444444444444444-2222222222222222-------------------|
E|-------------------------------------------------------3333333333333333--|

  INTERLUDE (x2)
G|-------------------------------------------------------------------------|
D|-------------------------------------------------------------------------|
A|-2/45555555555555555-4444444444444444-2222222222222222-------------------|
E|-------------------------------------------------------3333333333333333--|

  VERSE (x2)
G|-------------------------------------------------------------------------|
D|-------------------------------------------------------------------------|
A|-2/45555555555555555-4444444444444444-2222222222222222-------------------|
E|-------------------------------------------------------3333333333333333--|

  CHORUS (x4)
G|-------------------------------------------------------------------------|
D|-------------------------------------------------------------------------|
A|-2/45555555555555555-4444444444444444-2222222222222222-------------------|
E|-------------------------------------------------------3333333333333333--|

  OUTRO (x4)
G|-------------------------------------------------------------------------|
D|-------------------------------------------------------------------------|
A|-2/45555555555555555-4444444444444444-2222222222222222-------------------|
E|-------------------------------------------------------3333333333333333--|

  END
G|---------|
D|---------|
A|---5~~---|
E|---------|

11. Rite of Spring
Verses:
G|---------------------------------|
D|---------------------------------|
A|-7-7-7-7-7-7-7-7-0-0-0-0-0-0-0-0-| x4
E|---------------------------------|


Chorus:
G|---------------------------------|
D|---------------------------------|
A|-4-4-4-4-2-2-2-2-0-0-0-0-0-0-0-0-| x3
E|---------------------------------|

G|---------------------------|
D|---------------------------|
A|-4-4-4-4-2-2-2-2-0-0-0-0-0-|
E|---------------------------|


Bridge: Same as Verses

12. Heaven
Intro:

(0:29)
G|---------------------------------|
D|---------------------------------| repeat until
A|--------------55555--------------|
E|-55555---------------------------|

(1:22) (i havent done the exact right amount of notes hopefully u can pick up the rhythm

G|-----------------------------------------------------------------------|
D|-----------------------------------------------------------------------|
A|-----------------555555555555-44444444444-22222222222/14-14-14-14-14-14|
E|-55555555555555--------------------------------------------------------|

then
(1:49) Verse "i will run the streets and hostile lands"

G|-----------------------------------------------------------------------|
D|-----------------------------------------------------------------------|
A|-----------------555555555555-999999999999-777777777-555555555555555555|
E|-55555555555555--------------------------------------------------------|

then
(2:15) first let a 5 on A ring then back to

G|---------------------------------|
D|---------------------------------| repeat until
A|--------------55555--------------|
E|-55555---------------------------|

(2:42)
G|-----------------------------------------------------------------------|
D|-----------------------------------------------------------------------|
A|-----------------555555555555-44444444444-22222222222/14-14-14-14-14-14|
E|-55555555555555--------------------------------------------------------|

and then verse "do you see the .... beneath the clouds

G|-----------------------------------------------------------------------|
D|-----------------------------------------------------------------------|
A|-----------------555555555555-999999999999-777777777-555555555555555555|
E|-55555555555555--------------------------------------------------------|

then chorus

G|---------------------------------|
D|---------------------------------| repeat until
A|--------------55555--------------|
E|-55555---------------------------|

BRIDGE (4:01) but dont come in until (4:15)

G|-----------------------------------------------------------------------|
D|-----------------------------------------------------------------------|
A|-------------------------------555555555555555-------------------------|
E|-55555555555555555555555555555-----------------55555555555555555-------|

then resume to outro of song

(4:41) "if u see a light break through the clouds"

G|-----------------------------------------------------------------------|
D|-----------------------------------------------------------------------|
A|-----------------555555555555-44444444444-22222222222/14-14-14-14-14-14|
E|-55555555555555--------------------------------------------------------|

then


G|-----------------------------------------------------------------------|
D|-----------------------------------------------------------------------|
A|-----------------555555555555-999999999999-777777777-555555555555555555|
E|-55555555555555--------------------------------------------------------|

then "PLEASE STAY.....DONT GO, IVE GOT YOU NOW"
G|-----------------------------------------------------------------------|
D|-----------------------------------------------------------------------|
A|-----------------555555555555-44444444444-22222222222/14-14-14-14-14-14|
E|-55555555555555--------------------------------------------------------|

finish on
G|---------------------------------|
D|---------------------------------|
A|---------------------------------|
E|-----5~--------------------------|


Thanks!
hope everything is corect!
if you have any comments or tips or corrections e-mail me!
comments
We did not receive enough feedback on this tab! Please rate:
print report bad tab
1 2 3 4 5
1 comment total.
0 reply
SMAR_Bassist wrote on October 19 2008, 12:44 am

AMAZING!!!!!!!!!

I want to post or [tab]
guest
You may want to rate the tab now too:
select rating
Please do not post tabs as comments. Select "correction" instead!