Oops, an error
Loading. Please wait.

It Hurts tab

version 4
version 4
16,538 views 21 this week
6 commentsread comments
1 2 3 4 5
x 9
add to favorites
×
Save as Personal and add changes to this tab that will be seen only by you. Learn more ›
×
You can save this tab as Personal to edit and correct it or add notes. All changes will be seen only by you. Learn more »
launch autoscroll
font size
0
reset
how to read this tab
guitar tuner
backing track
0:00
0:00
edit
Autoscroll
slow
fast
+/-
esc
set tempo
stop
Author
It Hurts
Angels and Airwaves
We Don't Need To Whisper

Intro

E|---------------------------------------------------------------------------------------|
B|--14----------14----------14----------14----------14----------14----------14-----------|
G|-------14----------14----------14----------14----------14----------14----------14------|
D|----11----11----11----11----11----11----12----12----12----12----14----14----14----14---|
A|---------------------------------------------------------------------------------------|
E|---------------------------------------------------------------------------------------|

E|--------------------------|
B|--14----------14----------|
G|-------14----------14-----|
D|----12----12----12----12--|
A|--------------------------|
E|--------------------------|

Intro Pt.2

E|-------------------------------------------------|
B|-------------------------------------------------|
G|---------14----14----10----10----9----9---9---9--|
D|--77--11----11----12----12----11---11---9---9----|
A|--xx---------------------------------------------|
E|--55---------------------------------------------|

E|-----------------------------------------------|
B|-----------------------------------------------|
G|-------14----14----10----10----9----9---9---9--|
D|----11----11----12----12----11---11---9---9----|
A|-----------------------------------------------|
E|-----------------------------------------------|

E|-------------------------------------------------|
B|-------------------------------------------------|
G|---------14----14----10----10----9----9---9---9--|
D|--77--11----11----12----12----11---11---9---9----|
A|--xx---------------------------------------------|
E|--55---------------------------------------------|

E|-----------------------------------------------|
B|-----------------------------------------------|
G|-------14----14----10----10----9----9---9---9--|
D|----11----11----12----12----11---11---9---9----|
A|-----------------------------------------------|
E|-----------------------------------------------|

E|----------|
B|----------|
G|----------|
D|--7-7-77--|
A|--x-x-xx--|
E|--5-5-55--|

Pre-verse "It Hurts"

E|------------------------------------------|
B|------------------------------------------|
G|------------44444444------------77777777--|
D|--77777777--xxxxxxxx--44444444--xxxxxxxx--|
A|--xxxxxxxx--22222222--xxxxxxxx--55555555--|
E|--55555555------------22222222------------|

Pre-verse continued

E|--9----------------------9----------------------|
B|----10---12-10h12-10h12----10---12-10h12-10h12--|
G|-------9----------------------9-----------------|
D|------------------------------------------------|
A|------------------------------------------------|
E|------------------------------------------------|

E|--9----------9---------|
B|----10---12----10-12~--|
G|-------9---------------|
D|-----------------------|
A|-----------------------|

Verse:

E|--------------------------------------------------|
B|--------------------------------------------------|
G|--------------------------------------------------|
D|--77777777--66666666--1111111111111111--99999999--|
A|--xxxxxxxx--xxxxxxxx--x-x-x-x-x-x-x-x---xxxxxxxx--|
E|--55555555--44444444--9-9-9-9-9-9-9-9---77777777--|

Chorus:

E|--9--------9---------9----------|
B|------10--------10--------10----|
G|----9----9----9----9----9----9--|
D|--------------------------------|
A|--------------------------------|
E|--------------------------------|


Pre-verse "It Hurts"

E|------------------------------------------|
B|------------------------------------------|
G|------------44444444------------77777777--|
D|--77777777--xxxxxxxx--44444444--xxxxxxxx--|
A|--xxxxxxxx--22222222--xxxxxxxx--55555555--|
E|--55555555------------22222222------------|

Verse:

E|--------------------------------------------------|
B|--------------------------------------------------|
G|--------------------------------------------------|
D|--77777777--66666666--1111111111111111--99999999--|
A|--xxxxxxxx--xxxxxxxx--x-x-x-x-x-x-x-x---xxxxxxxx--|
E|--55555555--44444444--9-9-9-9-9-9-9-9---77777777--|

Chorus:

E|--9--------9---------9----------|
B|------10--------10--------10----|
G|----9----9----9----9----9----9--|
D|--------------------------------|
A|--------------------------------|
E|--------------------------------|

Interlude: "Dream..."

E|-----------------------------------------------|
B|-----------------------------------------------|
G|-------14----14----10----10----9----9---9---9--|
D|----11----11----12----12----11---11---9---9----|
A|-----------------------------------------------|
E|-----------------------------------------------|

Interlude pt.2

E|-----------------------------------------------------|
B|-----------------------------------------------------|
G|---------------------------------2b--2/14------------|
D|--7~--------------------------------------pickslide--|
A|--X~---------(LOTS OF FEEDBACK)----------------------|
E|--5~--5-7-5------------------------------------------|


Chorus:

E|--9--------9---------9----------|
B|------10--------10--------10----|
G|----9----9----9----9----9----9--|
D|--------------------------------|
A|--------------------------------|
E|--------------------------------|


Outro: "It Hurts"

E|-----------------------------------------------|
B|-----------------------------------------------|
G|------------44444444------------77777777-------|
D|--77777777--xxxxxxxx--44444444--xxxxxxxx---7~--|
A|--xxxxxxxx--22222222--xxxxxxxx--55555555---x~--|
E|--55555555------------22222222-------------5~--|

E|--9----------------------9----------------------|
B|----10---12-10h12-10h12----10---12-10h12-10h12--|
G|-------9----------------------9-----------------|
D|------------------------------------------------|
A|------------------------------------------------|
E|------------------------------------------------|

E|--9----------9---------9----9-----|
B|----10---12----10-12~----10---10--|
G|-------9--------------------------|
D|----------------------------------|
A|----------------------------------|
E|----------------------------------|

            
            
Suggest correction
Creating personal tab
Creating personal tab
You can edit any tab online and save it as your Personal.

You can edit, replace or remove any tab part or add personal notes – all changes will be seen only by you.

Personal tabs can be accessed anytime from any device, even offline.
Learn more »
comments
print report bad tab
6 comments total. Showing first comments.
0 reply
-Atticus- 80 Jul 05, 2006 07:03 PM

LEAVE SOME COMMENTS!

+1 reply
feasel 43 Jul 27, 2006 08:31 PM

really good tab, almost exactly how tom plays it except for the intro pt. 2, it's like this

intro pt. 2
E|------------------------------------------------------|
B|------------------------------------------------------|
G|------14-------14-------10-------10-------9--------9--|
D|--11-------11-------12-------12-------11-------11-----|
A|-----0---0----0---0----0---0----0---0----0---0----0--0|
E|------------------------------------------------------|

cont.
e|----------------|
B|----------------|
G|-----9------9---|
D|--9------9------|
A|----0--0---0--0-|
E|----------------|

0 reply
feasel 43 Jul 27, 2006 08:37 PM

oh yeah, and the chorus is played just like intro pt. 1

guest
You may want to rate the tab now too:
select rating
Wanna post a correction for this tab? Suggest correction