Oops, an error
Loading. Please wait.

It Hurts tab

version 5
version 5
3,663 views 1 this week
no commentswrite comment
1 2 3 4 5
x 3
add to favorites
×
Save as Personal and add changes to this tab that will be seen only by you. Learn more ›
×
You can save this tab as Personal to edit and correct it or add notes. All changes will be seen only by you. Learn more »
launch autoscroll
font size
0
reset
how to read this tab
guitar tuner
backing track
0:00
0:00
edit
Autoscroll
slow
fast
+/-
esc
set tempo
stop
Angels and Airwaves
"It Hurts"
We Don't Need To Whipser
Tuning: Drop D (DADGBE)

Okay so I broke this tab up into 2 parts, so that it would be a little less confusing. 
1's part is at the beginning of the tab. Guitar 2 is towards the end. If you've got any 
email me and I'll be happy to fix it.

Tabbed by: wolstenclark
email: wolstenclark@yahoo.com

KEY:

/  slide up
\  slide down
h  hammer-on
p  pull-off
~  vibrato
+  harmonic
x  Mute note
----------------------------------------------------------------------------
                                 GUITAR 1
----------------------------------------------------------------------------


INTRO 1
e|-9----9----9----9----|-9----9----9----9----|-9----9----9----9----|
B|---10---10---10---10-|---10---10---10---10-|---10---10---10---10-|
G|---------------------|---------------------|---------------------|
D|---------------------|---------------------|---------------------|
A|---------------------|---------------------|---------------------|
D|---------------------|---------------------|---------------------|

e|-9----9----9----9----|---------------------|---------------------|
B|---10---10---10---10-|---------------------|---------------------|
G|---------------------|---------------------|---------------------|
D|---------------------|---------------------|---------------------|
A|---------------------|---------------------|---------------------|
D|---------------------|---------------------|---------------------|

INTRO 2
e|---5--5-------|-----------------|--5--5--------|-----------------|
B|---------6--6-|---5---5---5---5-|---------6--6-|---5---5---5---5-|
G|-6--6--7--7---|-6---6---4---4---|-6--6--7--7---|-6---6---4---4---|
D|--------------|-----------------|--------------|-----------------|
A|--------------|-----------------|--------------|-----------------|
D|--------------|-----------------|--------------|-----------------|

e|---5--5-------|-----------------|--5--5--------|-----------------|
B|---------6--6-|---5---5---5---5-|---------6--6-|---5---5---5---5-|
G|-6--6--7--7---|-6---6---4---4---|-6--6--7--7---|-6---6---4---4---|
D|--------------|-----------------|--------------|-----------------|
A|--------------|-----------------|--------------|-----------------|
D|--------------|-----------------|--------------|-----------------|

RIFF 1 (Play at beginning of each verse, then let guitar 2 take over.)
e|-9-9------------------------|-9-9------------------------|
B|-----10---12~~--10h12-10h12-|-----10---12~~--10h12-10h12-|
G|--------9-------------------|--------9-------------------|
D|----------------------------|----------------------------|
A|----------------------------|----------------------------|
D|----------------------------|----------------------------|

e|-9-9------------------------|-9--------------9-----------|
B|-----10---12~~~~------------|--10~~----12~~----10--------|
G|--------9-------------------|--------9-------------------|
D|----------------------------|----------------------------|
A|----------------------------|----------------------------|
D|----------------------------|----------------------------|

CHORUS
e|9-------9------|10------10-----|12-------12----|7---------7----|
B|---10------10--|---10------10--|---10------10--|---9--------9--|
G|---------------|---------------|---------------|---------------|
D|---------------|---------------|---------------|---------------|
A|---------------|---------------|---------------|---------------|
E|---------------|---------------|---------------|---------------|


e|9-------9------|10------10-----|12-------12----|7---------7----|
B|---10------10--|---10------10--|---10------10--|---9--------9--|
G|---------------|---------------|---------------|---------------|
D|---------------|---------------|---------------|---------------|
A|---------------|---------------|---------------|---------------|
E|---------------|---------------|---------------|---------------|

INTERLUDE
e|---[F---E---E---D---B---A---C---K]-------------------------------------|
B|-----------------------------------------------------------------------|
G|-2-2----------------2b-------/14-----\2--------------------------------|
D|-x-x-----------------------------------------[PICKSLIDE]---------------|
A|-0-0-----2-0~~~~-------------------------------------------------------|
D|-----------------------------------------------------------------------|

----------------------------------------------------------------------------
                                GUITAR 2
----------------------------------------------------------------------------

INTRO 1
e|--------------|--------------|--------------|--------------|
B|--------------|--------------|--------------|--------------|
G|--6--6--6--6--|--7--7--7--7--|--9--9--9--9--|--7--7--7--7--|
D|--------------|--------------|--------------|--------------|
A|--------------|--------------|--------------|--------------|
D|--------------|--------------|--------------|--------------|

e|--------------|--------------|--------------|--------------|
B|--------------|--------------|--------------|--------------|
G|--6--6--6--6--|--7--7--7--7--|--9--9--9--9--|--7--7--7--7--|
D|--------------|--------------|--------------|--------------|
A|--------------|--------------|--------------|--------------|
D|--------------|--------------|--------------|--------------|

INTRO 2
e|----------------|-----------------|-----------------|-----------------|
B|----------------|-----------------|-----------------|-----------------|
G|-22-------------|-----------------|-----------------|-----------------|
D|-xx-------------|-----------------|-----------------|-----------------|
A|-00-0-0-0-0-0-0-|-0-0-0-0-0-0-0-0-|-0-0-0-0-0-0-0-0-|-0-0-0-0-0-0-0-0-|
D|----------------|-----------------|-----------------|-----------------|

e|----------------|-----------------|-----------------|-----------------|
B|----------------|-----------------|-----------------|-----------------|
G|-22-------------|-----------------|-----------------|-----------------|
D|-xx-------------|-----------------|-----------------|-----------------|
A|-00-0-0-0-0-0-0-|-0-0-0-0-0-0-0-0-|-0-0-0-0-0-0-0-0-|-0-0-0-0-0-0-0-0-|
D|----------------|-----------------|-----------------|-----------------|

e|---------------|------------------|-----------------|-----------------|
B|---------------|------------------|-----------------|-----------------|
G|2-----2-----2-2|------------------|-----------------|-----------------|
D|x-----x-----x-x|------------------|-----------------|-----------------|
A|0-----0-----0-0|------------------|-----------------|-----------------|
D|---------------|------------------|-----------------|-----------------|


PRE-VERSE
e|-----------------|-----------------|-----------------|-----------------|
B|-----------------|-----------------|-----------------|-----------------|
G|-2-2-2-2-2-2-2-2-|-4-4-4-4-4-4-4-4-|-----------------|-7-7-7-7-7-7-7-7-|
D|-2-2-2-2-2-2-2-2-|-4-4-4-4-4-4-4-4-|-4-4-4-4-4-4-4-4-|-7-7-7-7-7-7-7-7-|
A|-0-0-0-0-0-0-0-0-|-2-2-2-2-2-2-2-2-|-4-4-4-4-4-4-4-4-|-5-5-5-5-5-5-5-5-|
D|-----------------|-----------------|-4-4-4-4-4-4-4-4-|-----------------|

e|-----------------|-----------------|-----------------|-----------------|
B|-----------------|-----------------|-----------------|-----------------|
G|-2-2-2-2-2-2-2-2-|-4-4-4-4-4-4-4-4-|-----------------|-7-7-7-7-7-7-7-7-|
D|-2-2-2-2-2-2-2-2-|-4-4-4-4-4-4-4-4-|-4-4-4-4-4-4-4-4-|-7-7-7-7-7-7-7-7-|
A|-0-0-0-0-0-0-0-0-|-2-2-2-2-2-2-2-2-|-4-4-4-4-4-4-4-4-|-5-5-5-5-5-5-5-5-|
D|-----------------|-----------------|-4-4-4-4-4-4-4-4-|-----------------|

VERSE
e|-----------------|-----------------|-----------------|-----------------|
B|-----------------|-----------------|-----------------|-----------------|
G|-----------------|-----------------|-6-6-6-6-6-6-6-6-|-----------------|
D|-7-7-7-7-7-7-7-7-|-6-6-6-6-6-6-6-6-|-----------------|-9-9-9-9-9-9-9-9-|
A|-----------------|-----------------|-----------------|-----------------|
D|-----------------|-----------------|-----------------|-----------------|

e|-----------------|-----------------|-----------------|-----------------|
B|-----------------|-----------------|-----------------|-----------------|
G|-----------------|-----------------|-6-6-6-6-6-6-6-6-|-----------------|
D|-7-7-7-7-7-7-7-7-|-6-6-6-6-6-6-6-6-|-----------------|-9-9-9-9-9-9-9-9-|
A|-----------------|-----------------|-----------------|-----------------|
D|-----------------|-----------------|-----------------|-----------------|

e|-----------------|-----------------|-----------------|-----------------|
B|-----------------|-----------------|-----------------|-----------------|
G|-----------------|-----------------|-6-6-6-6-6-6-6-6-|-----------------|
D|-7-7-7-7-7-7-7-7-|-6-6-6-6-6-6-6-6-|-----------------|-9-9-9-9-9-9-9-9-|
A|-----------------|-----------------|-----------------|-----------------|
D|-----------------|-----------------|-----------------|-----------------|

e|-----------------|-----------------|-----------------|-----------------|
B|-----------------|-----------------|-----------------|-----------------|
G|-----------------|-----------------|-6-6-6-6-6-6-6-6-|-----------------|
D|-7-7-7-7-7-7-7-7-|-6-6-6-6-6-6-6-6-|-----------------|-9-9-9-9-9-9-9-9-|
A|-----------------|-----------------|-----------------|-----------------|
D|-----------------|-----------------|-----------------|-----------------|

e|-----------------|-----------------|-----------------|-----------------|
B|-----------------|-----------------|-----------------|-----------------|
G|-----------------|-----------------|-6-6-6-6-6-6-6-6-|-----------------|
D|-7-7-7-7-7-7-7-7-|-6-6-6-6-6-6-6-6-|-----------------|-9-9-9-9-9-9-9-9-|
A|-----------------|-----------------|-----------------|-----------------|
D|-----------------|-----------------|-----------------|-----------------|

CHORUS
e|-----------------|-----------------|-----------------|-----------------|
B|-----------------|-----------------|-----------------|-----------------|
G|-2-2-2-2-2-2-2-2-|-7-7-7-7-7-7-7-7-|-2-2-2-2-2-2-2-2-|-9-9-9-9-9-9-9-9-|
D|-2-2-2-2-2-2-2-2-|-7-7-7-7-7-7-7-7-|-2-2-2-2-2-2-2-2-|-9-9-9-9-9-9-9-9-|
A|-0-0-0-0-0-0-0-0-|-5-5-5-5-5-5-5-5-|-0-0-0-0-0-0-0-0-|-7-7-7-7-7-7-7-7-|
D|-----------------|-----------------|-----------------|-----------------|

e|-----------------|-----------------|-----------------|-----------------|
B|-----------------|-----------------|-----------------|-----------------|
G|-----------------|-7-7-7-7-7-7-7-7-|-----------------|-9-9-9-9-9-9-9-9-|
D|-4-4-4-4-4-4-4-4-|-7-7-7-7-7-7-7-7-|-7-7-7-7-7-7-7-7-|-9-9-9-9-9-9-9-9-|
A|-4-4-4-4-4-4-4-4-|-5-5-5-5-5-5-5-5-|-7-7-7-7-7-7-7-7-|-7-7-7-7-7-7-7-7-|
D|-4-4-4-4-4-4-4-4-|-----------------|-7-7-7-7-7-7-7-7-|-----------------|

PRE-VERSE (REPEAT)
e|-----------------|-----------------|-----------------|-----------------|
B|-----------------|-----------------|-----------------|-----------------|
G|-2-2-2-2-2-2-2-2-|-4-4-4-4-4-4-4-4-|-----------------|-7-7-7-7-7-7-7-7-|
D|-2-2-2-2-2-2-2-2-|-4-4-4-4-4-4-4-4-|-4-4-4-4-4-4-4-4-|-7-7-7-7-7-7-7-7-|
A|-0-0-0-0-0-0-0-0-|-2-2-2-2-2-2-2-2-|-4-4-4-4-4-4-4-4-|-5-5-5-5-5-5-5-5-|
D|-----------------|-----------------|-4-4-4-4-4-4-4-4-|-----------------|

e|-----------------|-----------------|-----------------|-----------------|
B|-----------------|-----------------|-----------------|-----------------|
G|-2-2-2-2-2-2-2-2-|-4-4-4-4-4-4-4-4-|-----------------|-7-7-7-7-7-7-7-7-|
D|-2-2-2-2-2-2-2-2-|-4-4-4-4-4-4-4-4-|-4-4-4-4-4-4-4-4-|-7-7-7-7-7-7-7-7-|
A|-0-0-0-0-0-0-0-0-|-2-2-2-2-2-2-2-2-|-4-4-4-4-4-4-4-4-|-5-5-5-5-5-5-5-5-|
D|-----------------|-----------------|-4-4-4-4-4-4-4-4-|-----------------|

VERSE
e|-----------------|-----------------|-----------------|-----------------|
B|-----------------|-----------------|-----------------|-----------------|
G|-----------------|-----------------|-6-6-6-6-6-6-6-6-|-----------------|
D|-7-7-7-7-7-7-7-7-|-6-6-6-6-6-6-6-6-|-----------------|-9-9-9-9-9-9-9-9-|
A|-----------------|-----------------|-----------------|-----------------|
D|-----------------|-----------------|-----------------|-----------------|

e|-----------------|-----------------|-----------------|-----------------|
B|-----------------|-----------------|-----------------|-----------------|
G|-----------------|-----------------|-6-6-6-6-6-6-6-6-|-----------------|
D|-7-7-7-7-7-7-7-7-|-6-6-6-6-6-6-6-6-|-----------------|-9-9-9-9-9-9-9-9-|
A|-----------------|-----------------|-----------------|-----------------|
D|-----------------|-----------------|-----------------|-----------------|

e|-----------------|-----------------|-----------------|-----------------|
B|-----------------|-----------------|-----------------|-----------------|
G|-----------------|-----------------|-6-6-6-6-6-6-6-6-|-----------------|
D|-7-7-7-7-7-7-7-7-|-6-6-6-6-6-6-6-6-|-----------------|-9-9-9-9-9-9-9-9-|
A|-----------------|-----------------|-----------------|-----------------|
D|-----------------|-----------------|-----------------|-----------------|

e|-----------------|-----------------|-----------------|-----------------|
B|-----------------|-----------------|-----------------|-----------------|
G|-----------------|-----------------|-6-6-6-6-6-6-6-6-|-----------------|
D|-7-7-7-7-7-7-7-7-|-6-6-6-6-6-6-6-6-|-----------------|-9-9-9-9-9-9-9-9-|
A|-----------------|-----------------|-----------------|-----------------|
D|-----------------|-----------------|-----------------|-----------------|

CHORUS
e|-----------------|-----------------|-----------------|-----------------|
B|-----------------|-----------------|-----------------|-----------------|
G|-2-2-2-2-2-2-2-2-|-7-7-7-7-7-7-7-7-|-2-2-2-2-2-2-2-2-|-9-9-9-9-9-9-9-9-|
D|-2-2-2-2-2-2-2-2-|-7-7-7-7-7-7-7-7-|-2-2-2-2-2-2-2-2-|-9-9-9-9-9-9-9-9-|
A|-0-0-0-0-0-0-0-0-|-5-5-5-5-5-5-5-5-|-0-0-0-0-0-0-0-0-|-7-7-7-7-7-7-7-7-|
D|-----------------|-----------------|-----------------|-----------------|

e|-----------------|-----------------|-----------------|-----------------|
B|-----------------|-----------------|-----------------|-----------------|
G|-----------------|-7-7-7-7-7-7-7-7-|-----------------|-9-9-9-9-9-9-9-9-|
D|-4-4-4-4-4-4-4-4-|-7-7-7-7-7-7-7-7-|-7-7-7-7-7-7-7-7-|-9-9-9-9-9-9-9-9-|
A|-4-4-4-4-4-4-4-4-|-5-5-5-5-5-5-5-5-|-7-7-7-7-7-7-7-7-|-7-7-7-7-7-7-7-7-|
D|-4-4-4-4-4-4-4-4-|-----------------|-7-7-7-7-7-7-7-7-|-----------------|

INTERLUDE
e|-----------------|-----------------|-----------------|-----------------|
B|-----------------|-----------------|-----------------|-----------------|
G|-----------------|-----------------|-----------------|-----------------|
D|-----------------|-----------------|-----------------|-----------------|
A|-0-0-0-0-0-0-0-0-|-0-0-0-0-0-0-0-0-|-0-0-0-0-0-0-0-0-|-0-0-0-0-0-0-0-0-|
D|-----------------|-----------------|-----------------|-----------------|

e|-----------------|-----------------|-----------------|-----------------|
B|-----------------|-----------------|-----------------|-----------------|
G|-----------------|-----------------|-----------------|-----------------|
D|-----------------|-----------------|-----------------|-----------------|
A|-0-0-0-0-0-0-0-0-|-0-0-0-0-0-0-0-0-|-0-0-0-0-0-0-0-0-|-0-0-0-0-0-0-0-0-|
D|-----------------|-----------------|-----------------|-----------------|

e|-----------------|-----------------|-----------------|-----------------|
B|-----------------|-----------------|-----------------|-----------------|
G|-----------------|-----------------|-----------------|-----------------|
D|-----------------|-----------------|-----------------|-----------------|
A|-0-0-0-0-0-0-0-0-|-0-0-0-0-0-0-0-0-|-0-0-0-0-0-0-0-0-|-0-0-0-0-0-0-0-0-|
D|-----------------|-----------------|-----------------|-----------------|

e|-----------------|-----------------|-----------------|-----------------|
B|-----------------|-----------------|-----------------|-----------------|
G|-----------------|-----------------|-----------------|-----------------|
D|-----------------|-----------------|-----------------|-----------------|
A|-0-0-0-0-0-0-0-0-|-0-0-0-0-0-0-0-0-|-0-0-0-0-0-0-0-0-|-0-0-0-0-0-0-0-0-|
D|-----------------|-----------------|-----------------|-----------------|

FINAL CHORUS
e|-----------------|-----------------|-----------------|-----------------|
B|-----------------|-----------------|-----------------|-----------------|
G|-2-2-2-2-2-2-2-2-|-7-7-7-7-7-7-7-7-|-2-2-2-2-2-2-2-2-|-9-9-9-9-9-9-9-9-|
D|-2-2-2-2-2-2-2-2-|-7-7-7-7-7-7-7-7-|-2-2-2-2-2-2-2-2-|-9-9-9-9-9-9-9-9-|
A|-0-0-0-0-0-0-0-0-|-5-5-5-5-5-5-5-5-|-0-0-0-0-0-0-0-0-|-7-7-7-7-7-7-7-7-|
D|-----------------|-----------------|-----------------|-----------------|

e|-----------------|-----------------|-----------------|-----------------|
B|-----------------|-----------------|-----------------|-----------------|
G|-----------------|-7-7-7-7-7-7-7-7-|-----------------|-9-9-9-9-9-9-9-9-|
D|-4-4-4-4-4-4-4-4-|-7-7-7-7-7-7-7-7-|-7-7-7-7-7-7-7-7-|-9-9-9-9-9-9-9-9-|
A|-4-4-4-4-4-4-4-4-|-5-5-5-5-5-5-5-5-|-7-7-7-7-7-7-7-7-|-7-7-7-7-7-7-7-7-|
D|-4-4-4-4-4-4-4-4-|-----------------|-7-7-7-7-7-7-7-7-|-----------------|


FINAL PRE-VERSE
e|-----------------|-----------------|-----------------|-----------------|
B|-----------------|-----------------|-----------------|-----------------|
G|-2-2-2-2-2-2-2-2-|-4-4-4-4-4-4-4-4-|-----------------|-7-7-7-7-7-7-7-7-|
D|-2-2-2-2-2-2-2-2-|-4-4-4-4-4-4-4-4-|-4-4-4-4-4-4-4-4-|-7-7-7-7-7-7-7-7-|
A|-0-0-0-0-0-0-0-0-|-2-2-2-2-2-2-2-2-|-4-4-4-4-4-4-4-4-|-5-5-5-5-5-5-5-5-|
D|-----------------|-----------------|-4-4-4-4-4-4-4-4-|-----------------|

e|-----------------|-----------------|-----------------|-----------------|
B|-----------------|-----------------|-----------------|-----------------|
G|-2-2-2-2-2-2-2-2-|-4-4-4-4-4-4-4-4-|-----------------|-7-7-7-7-7-7-7-7-|
D|-2-2-2-2-2-2-2-2-|-4-4-4-4-4-4-4-4-|-4-4-4-4-4-4-4-4-|-7-7-7-7-7-7-7-7-|
A|-0-0-0-0-0-0-0-0-|-2-2-2-2-2-2-2-2-|-4-4-4-4-4-4-4-4-|-5-5-5-5-5-5-5-5-|
D|-----------------|-----------------|-4-4-4-4-4-4-4-4-|-----------------|

            
            
Suggest correction
Creating personal tab
Creating personal tab
You can edit any tab online and save it as your Personal.

You can edit, replace or remove any tab part or add personal notes – all changes will be seen only by you.

Personal tabs can be accessed anytime from any device, even offline.
Learn more »
Give kudos to tab author, rate the tab!
1 2 3 4 5
comments
print report bad tab
guest
You may want to rate the tab now too:
select rating
Wanna post a correction for this tab? Suggest correction