Oops, an error
Loading. Please wait.

Macbeth Pod Cast intro tab

822 views 1 this week
4 commentsread comments
1 2 3 4 5
x 4
add to favorites
×
Save as Personal and add changes to this tab that will be seen only by you. Learn more ›
×
You can save this tab as Personal to edit and correct it or add notes. All changes will be seen only by you. Learn more »
launch autoscroll
font size
0
reset
how to read this tab
guitar tuner
edit
Autoscroll
slow
fast
+/-
esc
set tempo
stop
Author
Difficulty
Here it is...the begining to the macbeth pod cast
e----------------------------------------------------------------------|
B---14------14------14------14------14------14------14------14---------|
G-------14------14------14------14------14------14------14------14-----|  X2
D-----11--11--11--11--12--12--12--12--14--14--14--14--12--12--12--12---|
A----------------------------------------------------------------------|
E----------------------------------------------------------------------|

Then

e-------------------------------------------------------------------|
B-------------------------------------------------------------------|
G----------14--14--10--10---9----9---9---9--------------------------|
D--77----11--11--12--12--11---11---9---9--------7-7-7-777-----------|
A--XX-------------------------------------------X-X-X-XXX-----------|
E--55-------------------------------------------5-5-5-555-----------|

Here ya go, my first tab, enjoy teh new sounds of Tom DeLonge

http://www.angels-and-airwaves.com/
http://AngelsAndAirwaves.co.uk/
http://www.angelsandairwaves.com/Default_main.php
Suggest correction
Creating personal tab
Creating personal tab
You can edit any tab online and save it as your Personal.

You can edit, replace or remove any tab part or add personal notes – all changes will be seen only by you.

Personal tabs can be accessed anytime from any device, even offline.
Learn more »
comments
print report bad tab
4 comments total. Showing first comments.
0 reply
uzisniperman 10 Dec 23, 2005 04:00 PM

the only thing worng is u should play A open between these like this
e------------------------------------------------------------------|
B------------------------------------------------------------------|
G-----------14----14----10----10----9-----9----9----9--------------|
D--77----11----11----12----12----11----11----9---9-------7-7-7-777-|
A--XX------0--0--0--0--0--0--0--0--0-0---0-0--0-0--0-----X-X-X-XXX-|
E--55----------------------------------------------------5-5-5-555-|

-1 reply
kostkaskater 30 Mar 27, 2006 04:37 AM

You have to be a very very true fan to actually tab this stuff out. I give you a 4. Good Job!!!

0 reply
Mitchy182Punk 10 Jun 15, 2006 09:07 PM

this song is by ava and its called "it hurts"

guest
You may want to rate the tab now too:
select rating
Wanna post a correction for this tab? Suggest correction