Oops, an error
Loading. Please wait.

Machine tab

version 3
version 3

Whole song

127 views 1 this week
no commentswrite comment
1 2 3 4 5
3 more votes to show rating
add to favorites
×
Save as Personal and add changes to this tab that will be seen only by you. Learn more ›
×
You can save this tab as Personal to edit and correct it or add notes. All changes will be seen only by you. Learn more »
launch autoscroll
font size
0
reset
how to read this tab
guitar tuner
edit
Autoscroll
slow
fast
+/-
esc
set tempo
stop
Author
Difficulty
Capo in 2nd fret

hi! i saw the two other tabs and they don¿t sounds really good so this is my tab
this song has just four riffs on it

Riff 1 this riffs is the intro riff, in the background sounds another acoustic guitar, but i can barely hear it 
so i can't figure out.
e|--------------------------|
b|--------------------------|
g|--------------------------|
d|-9-----7---6h7h9---9/11---|
a|---0-0---0-------0--------|
e|--------------------------|

Riff 2 the heavy riff with distortion also played in the chorus
e|--------------------------|
b|--------------------------|
g|--------------------------|
d|-11-11/7-7-7-7-7-7-7-7/6--|
a|-11-11/7-7-7-7-7-7-7-7/6--|
e|-9---9/5-5-5-5-5-5-5-5/4--|

Riff 3 this is play it in the verse
e|----------------------------------------------------|
b|----------------------------------------------------|
g|----------------------------------------------------|
d|-6/7-7-7--7-7/9-9-9--11-11-11/13/9---11-11-11/13\9--|
a|-0-0-0-0--0-0-0-0-0--0--0--0--0--0---0--0--0--0--0--|
e|-4/5-5-5--5-5/7-7-7--9--9--9/11\ 7---9--9--9/11\7---|

Riff 4 Pre-chorus Just listen how many times is played
e|----------------|
b|----------------|
g|----------------|
d|----7~----11~---|
a|----0~-----0~---|
e|-5~-----9~------|

Riff 1.2 this is the riff of the bridge, you just have to mute the A string every time you played
so thats all, thanks for watching.

            
            
Suggest correction
Creating personal tab
Creating personal tab
You can edit any tab online and save it as your Personal.

You can edit, replace or remove any tab part or add personal notes – all changes will be seen only by you.

Personal tabs can be accessed anytime from any device, even offline.
Learn more »
Give kudos to tab author, rate the tab!
1 2 3 4 5
comments
print report bad tab
guest
You may want to rate the tab now too:
select rating
Wanna post a correction for this tab? Suggest correction