Oops, an error
Loading. Please wait.

Rite Of Spring tab

version 2
version 2

Whole song

Interactive

1,922 views 3 this week
3 commentsread comments
1 2 3 4 5
x 3
add to favorites
×
Save as Personal and add changes to this tab that will be seen only by you. Learn more ›
×
You can save this tab as Personal to edit and correct it or add notes. All changes will be seen only by you. Learn more »
launch autoscroll
font size
0
reset
how to read this tab
guitar tuner
edit
Autoscroll
slow
fast
+/-
esc
set tempo
stop
Author
INTRO (repeat a few times)
|-----------------------------------------|
|--------------3----------------3---------|
|---------4-4---4--4------4-4----4--4-----|
|----3-3----------3---3-3----------3------|
|-----------------------------------------|
|-----------------------------------------|

VERSE (00:27) (repeat a few times)
|--------------------------------|
|--------------------------------|
|----------4------4---4----------| (x4)
|-----2-2----2-2---2-------------|
|--------------------------------|
|--------------------------------|

|--------------------------------|
|--------------------------------|
|----------4------4---4----------| (x4)
|--------------------------------|
|-----0-0----0-0---0-------------|
|--------------------------------|

CHORUS (1:19) (repeat a few times)
|-----------------------------------------------------------------------------|
|-----------------------------------------------------------------------------|
|--9-9-9-9-9-9-9-9-9-9-9-9---8-8-8-8---9-9-9-9-9-9-9-9-9-9-9-9-11-11-9-8------|
|-----------------------------------------------------------------------------|
|-----------------------------------------------------------------------------|
|-----------------------------------------------------------------------------|

SOLO (1:45) (repeat 2 times)
|---------------------------------------------------------------------------------------------|
|---------------------------------------------------------------------------------------------|
|---1-----------------------1---------------------------2-----------------------2-------------|
|-----2-4-2-4-4-2-4-2-------2-4-2-4-4-2-4/6---2-----2-4-2-4-4-2-4-2------2-4-2-4-4-2-4-2-1-2--|
|---------------------------------------------------------------------------------------------|
|---------------------------------------------------------------------------------------------|

VERSE (2:11) (repeat a few times)

CHORUS (2:36) (repeat a few times)

OUTRO SAME THAT SOLO (3:02)

CHORUS (3:28) (repeat a few times)

            
            
Suggest correction
Creating personal tab
Creating personal tab
You can edit any tab online and save it as your Personal.

You can edit, replace or remove any tab part or add personal notes – all changes will be seen only by you.

Personal tabs can be accessed anytime from any device, even offline.
Learn more »
Give kudos to tab author, rate the tab!
1 2 3 4 5
comments
print report bad tab
3 comments total.
0 reply
atticus44 92 Nov 01, 2007 03:29 AM

this tab don't sound right!, the first tab is much better

0 reply
mr--wrigley 31 Nov 01, 2007 12:10 PM

this tab isn't bad, but the first one was spot on so ther isn't really any need for another one

0 reply
asdrians 175 Nov 19, 2007 08:24 AM

updated.

guest
You may want to rate the tab now too:
select rating
Wanna post a correction for this tab? Suggest correction