Oops, an error
Loading. Please wait.

Shove bass

version 1
version 1

Whole song

  • It's probably not exactly like it's played but it ... Show more
2,974 views 1 this week
1 commentread comment
1 2 3 4 5
1 last vote to show rating
add to favorites
×
Save as Personal and add changes to this tab that will be seen only by you. Learn more ›
×
You can save this tab as Personal to edit and correct it or add notes. All changes will be seen only by you. Learn more »
launch autoscroll
font size
0
reset
guitar tuner
edit
Autoscroll
slow
fast
+/-
esc
set tempo
stop
Author
I kinda figured it out on my own so I hope this is the right

/ = slide up
\ = slide down
~ = let ring
? = couldn't get the note


Pre-verse:

G --------------------------------------------------------------------------|
D --------------------------------------------------------------------------|
A -22222222-------------------------22222222-----------------------------2~-|
E ---------000000004444444400000000/--------00000000444444440000/12121212---|

Verse:

G ---------------------------------------------------|
D ---------------------------------------------------|
A ---------1111111122222222----------------11111111--|
E -44444444----------------2222222244444444----------|

Chours:

G ----------------------------------------------------------------------|
D ----------------------------------------------------------------------|
A -22222222--------22222222------------------------22222222---------2~--|
E ---------00000000--------222222224444444400000000--------2222/????----|

Verse:

G ---------------------------------------------------|
D ---------------------------------------------------|
A ---------1111111122222222----------------11111111--|
E -44444444----------------2222222244444444----------|

Chours:

G ----------------------------------------------------------------------|
D ----------------------------------------------------------------------|  x2
A -22222222--------22222222------------------------22222222---------2~--|
E ---------00000000--------222222224444444400000000--------2222/????----|

Chours:

G ----------------------------------------------------------------------|
D ----------------------------------------------------------------------|  x2
A -22222222--------22222222------------------------22222222---------2~--|
E ---------00000000--------222222224444444400000000--------2222/????----|

Qoutro:

G --------------------------------------|
D 9999999\/999999\/9999999\/9999999\/---|
A --------------------------------------|
E --------------------------------------|

Ending note:

G ----|
D ----|
A -2~-|
E ----|

I really hope and think this is the right one 

            
            
Suggest correction
Creating personal tab
Creating personal tab
You can edit any tab online and save it as your Personal.

You can edit, replace or remove any tab part or add personal notes – all changes will be seen only by you.

Personal tabs can be accessed anytime from any device, even offline.
Learn more »
Give kudos to tab author, rate the tab!
1 2 3 4 5
comments
print report bad tab
1 comment total.
0 reply
n00bzilla99 188 Jan 03, 2012 10:03 AM

i think that the missing note is an 8 on the e string, that's what i play and it fits really well.

guest
You may want to rate the tab now too:
select rating
Wanna post a correction for this tab? Suggest correction