Oops, an error
Loading. Please wait.

Shove Bass Tab

version 2
version 2

Whole song

  • It's probably not exactly like it's played but it ... Show more
22 views 3 this week
no commentswrite comment
1 2 3 4 5
3 more votes to show rating
add to favorites
launch autoscroll
font size
0
reset
guitar tuner
Autoscroll
slow
fast
+/-
esc
set tempo
stop
Help us to improve Ultimate-Guitar.com Take our survey!
×
Author
Difficulty
intermediate
About this tab version
It's probably not exactly like it's played but it sounds good and is so much fun to play. Was this info helpful? Yes No
[Intro] 
(No bass for 8 mesures)
  Q   Q.    E Q    Q   Q.    E Q    Q   Q.    E Q    Q   Q.    E Q
G|----4-------4---|----------------|----------------|----------------|
D|----------------|----2-------2---|----6-------6---|----2-------2---|  x2
A|2---------2-----|----------------|----------------|----------------|
E|----------------|0---------0-----|4---------4-----|0---------0-----|


[Verse]
  W
G|----------------|----------------|----------------|----------------|
D|----------------|----------------|----------------|----------------|
A|2---------------|~---------------|~---------------|~---------------|
E|----------------|----------------|----------------|----------------|

(4 mesures rest) 

  W                W                W                W                W                H.          Q
G|----------------|----------------|----------------|----------------|----------------|----------------|
D|----------------|----------------|----------------|----------------|----------------|----------------|
A|----------------|1---------------|2---------------|----------------|----------------|1---------------|
E|4---------------|----------------|----------------|2---------------|4---------------|------------2---|


[Chorus]
  E E E E E E E E  E E E E E E E E  E E E E E E E E  E E E E E E E E 
G|----4-4-4---4-4-|----------------|----4-4-4---4-4-|----------------|
D|----------------|----2-2-2---2-2-|----------------|----4-4-4---4-4-|
A|2-2-------2-----|----------------|2-2-------2-----|----------------|
E|----------------|0-0-------0-----|----------------|2-2-------2-----|

  E E E E E E E E  E E E E E E E E  E E E E E E E E  H       Q   Q   
G|----------------|----------------|----4-4-4---4-4-|----------------|
D|----6-6-6---6-6-|----2-2-2---2-2-|----------------|----------------|
A|----------------|----------------|2-2-------2-----|----------------|
E|4-4-------4-----|0-0-------0-----|----------------|2-/-----14--\---|


[Interlude]

  Q   Q.    E Q    Q   Q.    E Q    Q   Q.    E Q    Q   Q.    E Q
G|----4-------4---|----------------|----------------|----------------|
D|----------------|----2-------2---|----6-------6---|----2-------2---|  x2
A|2---------2-----|----------------|----------------|----------------|
E|----------------|0---------0-----|4---------4-----|0---------0-----
[Verse]

  W
G|----------------|----------------|----------------|----------------|
D|----------------|----------------|----------------|----------------|
A|2---------------|~---------------|~---------------|~---------------|
E|----------------|----------------|----------------|----------------|

(4 mesures rest) 

  W                W                W                W                W                H.          Q
G|----------------|----------------|----------------|----------------|----------------|----------------|
D|----------------|----------------|----------------|----------------|----------------|----------------|
A|----------------|1---------------|2---------------|----------------|----------------|1---------------|
E|4---------------|----------------|----------------|2---------------|4---------------|------------2---|


[Chorus] x2

  E E E E E E E E  E E E E E E E E  E E E E E E E E  E E E E E E E E 
G|----4-4-4---4-4-|----------------|----4-4-4---4-4-|----------------|
D|----------------|----2-2-2---2-2-|----------------|----4-4-4---4-4-|
A|2-2-------2-----|----------------|2-2-------2-----|----------------|
E|----------------|0-0-------0-----|----------------|2-2-------2-----|

  E E E E E E E E  E E E E E E E E  E E E E E E E E  H       Q   Q   
G|----------------|----------------|----4-4-4---4-4-|----------------|
D|----6-6-6---6-6-|----2-2-2---2-2-|----------------|----------------|
A|----------------|----------------|2-2-------2-----|----------------|
E|4-4-------4-----|0-0-------0-----|----------------|2-/-----14--\---|


[Bridge]

G|----------------|----------------|
D|----------------|----------------|
A|-2--------------|~---------------|
E|----------------|----------------|

(2 Mesures rest)


[Chorus] x2

  E E E E E E E E  E E E E E E E E  E E E E E E E E  E E E E E E E E 
G|----4-4-4---4-4-|----------------|----4-4-4---4-4-|----------------|
D|----------------|----2-2-2---2-2-|----------------|----4-4-4---4-4-|
A|2-2-------2-----|----------------|2-2-------2-----|----------------|
E|----------------|0-0-------0-----|----------------|2-2-------2-----|

  E E E E E E E E  E E E E E E E E  E E E E E E E E  H       Q   Q   
G|----------------|----------------|----4-4-4---4-4-|----------------|
D|----6-6-6---6-6-|----2-2-2---2-2-|----------------|----------------|
A|----------------|----------------|2-2-------2-----|----------------|
E|4-4-------4-----|0-0-------0-----|----------------|2-/-----14--\---|


[Outro]

G|----------------|----------------|
D|----------------|----------------|
A|-2--------------|~---------------|
E|----------------|----------------|

(2 Mesures rest)

  H.          .SSS .SQ.    Q   .SSS
G|4--------------4|-44-----~------4|
D|-------------24-|-------------24-| x6
A|----------------|----------------|
E|----------------|----------------|

End on B



************************************

| /  Slide up
| \  Slide down
| ~  Vibrato

************************************
Suggest correction
Give kudos to tab author, rate the tab!
1 2 3 4 5
comments
print report bad tab
guest
You may want to rate the tab now too:
select rating
Wanna post a correction for this tab? Suggest correction