Oops, an error
Loading. Please wait.

Sirens tab

version 4
version 4
5,221 views 1 this week
1 commentread comment
1 2 3 4 5
x 3
add to favorites
×
Save as Personal and add changes to this tab that will be seen only by you. Learn more ›
×
You can save this tab as Personal to edit and correct it or add notes. All changes will be seen only by you. Learn more »
launch autoscroll
font size
0
reset
how to read this tab
guitar tuner
edit
Autoscroll
slow
fast
+/-
esc
set tempo
stop
Lead Guitar


Verses:

e|--------------------------2-2----|
B|--5--3----5--3----5--3----3-3----|
G|--2--2----2--2----2--2-----------| play x5
D|---------------------------------|
A|---------------------------------|
E|---------------------------------|

Pre-chorus:

e|--------3--3----------------3--3--------|
B|--2--3--3--3--3--2----2--3--3--3--3--5--|
G|--2--2--------2--2----2--2--------2--2--| play x2
D|----------------------------------------|
A|----------------------------------------|
E|----------------------------------------|

Chorus:

e|-----------------------------------------------------------|
B|-----3--2--3--2-----3--2--3--2--------------3--------3s5---|
G|--2--------------2--------------2--0-----0--------0--------| 
D|-----------------------------------0--0--------0-----------| play x4
A|-----------------------------------------------------------|
E|-----------------------------------------------------------|

2nd Guitar:


Intro/Verses:

e|------------------|-------------------|-------------------|-------------------|
B|------------------|-------------------|-------------------|-------------------|
G|------------------|-------------------|-------------------|-------------------|
D|------0----0----0-|------0-----0---o--|------0-----0---0--|-------------------|
A|------------------|--2-2---2-2---2----|--0-0---0-0---0----|--2-----2---2------|
E|--3-3---3-3---3---|-------------------|-------------------|----0-0---0---4-4--|

Chorus:

D
I do this from time to time
                   G
Where I can never wake from a bad dream
Bm
I do this from time to time
                   G                A
Where I can never say the things I mean
D
I do this from time to time
                 G
Where I like to watch you as you sleep
Bm
I do this from time to time
                  G               A
Where I like to think of you with me



Bridge:
        D   Bm    A
I can hear you breathe
                                     D Bm    A
I'm feeling the shake and the sound of my heartbeat

Can let go
D  Bm  A                                       D
Do you know I’m feeling the pain of my first love
Bm        A
I let it go

Can’t let go






3s5 = slide from 3rd fret to 5th fret
Suggest correction
Creating personal tab
Creating personal tab
You can edit any tab online and save it as your Personal.

You can edit, replace or remove any tab part or add personal notes – all changes will be seen only by you.

Personal tabs can be accessed anytime from any device, even offline.
Learn more »
Give kudos to tab author, rate the tab!
1 2 3 4 5
comments
print report bad tab
1 comment total.
0 reply
guitargod5 82 Jul 30, 2009 06:07 AM

Better than my tab...lol.

I Tabbed it back before the album came out when i had a leaked version.

guest
Wanna post a correction for this tab? Suggest correction