Oops, an error
Loading. Please wait.

Star Of Bethlehem bass

version 1
version 1

Whole song

Interactive

889 views 1 this week
1 commentread comment
1 2 3 4 5
x 3
add to favorites
×
Save as Personal and add changes to this tab that will be seen only by you. Learn more ›
×
You can save this tab as Personal to edit and correct it or add notes. All changes will be seen only by you. Learn more »
launch autoscroll
font size
0
reset
guitar tuner
edit
Autoscroll
slow
fast
+/-
esc
set tempo
stop
-------------------------------------------------------------------------------
                   Star Of Bethlehem - Angels And Airwaves
-------------------------------------------------------------------------------

I did this by ear, and this sounds 100 percent correct to me. You may look at some
such as the verse and say "oh, in the intro that not was played EIGHT times; but here it says
played seven times". That's how the song is actually played, or how it sounds best
so it's unpurpose. I've tabbed it to the original,  8 minute Star of Bethlehem. If you
have the 4 minute version, forget the timing I placed besides each section of the song,
just play! Any questions or remarks, feel free to email me =] Enjoy!

Tabbed By : Bryan
e-mail: btk8@hotmail.com

Tuning: Standard

Intro (4:00 - 4:15)

G|---------------------------------------------------------------------------|
D|---------------------------------------------------------------------------|
A|-0-0-0-0-0-0-0-0-2-2-2-2-2-2-2-2-4-4-4-4-4-4-4-4-5-5-5-5-5-5-5-4-----------|
E|---------------------------------------------------------------------------|x2

Verse (4:15 - 4:45)

G|---------------------------------------------------------------------------|
D|---------------------------------4-4-4-4-4-4-4/5---------------------------|
A|-0-0-0-0-0-0-0-0-2-2-2-2-2-2-2-2-----------------5-5-5-5-5-5-4-------------|
E|---------------------------------------------------------------------------|

G|---------------------------------------------------------------------------|
D|---------------------------------------------------------------------------|
A|-0-0-0-0-0-0-0-0-2-2-2-2-2-2-2-2-----------------5-5-5-5-5-5-4-------------|
E|---------------------------------2-2-2-2-2-2-2-2---------------------------|

G|---------------------------------------------------------------------------|
D|---------------------------------4-4-4-4-4-4-4/5---------------------------|
A|-0-0-0-0-0-0-0-0-2-2-2-2-2-2-2-2-----------------5-5-5-5-5-5-4-------------|
E|---------------------------------------------------------------------------|

G|---------------------------------------------------------------------------|
D|---------------------------------------------------------------------------|
A|-0-0-0-0-0-0-0-0-2-2-2-2-2-2-2-2-----------------5-5-5-5-5-5-4-------------|
E|---------------------------------2-2-2-2-2-2-2-2---------------------------|

Pre-Chorus (4:45 - 5:00)

G|---------------------------------------------------------------------------|
D|---------------------------------0~----------------------------------------|
A|-0~------------------------------------------------------------------------|
E|---------------------------------------------------------------------------|x2

Chorus (5:00 - 5:14)

G|---------------------------------------------------------------------------|
D|---------------------------------------------------------------------------|
A|-0-0-0-0-0-0-0-0-2-2-2-2-2-2-2-2-4-4-4-4-4-4-4-4-5-5-5-5-5-5-5-4-----------|
E|---------------------------------------------------------------------------|x2

Verse (5:14 - 5:44)

G|---------------------------------------------------------------------------|
D|---------------------------------4-4-4-4-4-4-4/5---------------------------|
A|-0-0-0-0-0-0-0-0-2-2-2-2-2-2-2-2-----------------5-5-5-5-5-5-4-------------|
E|---------------------------------------------------------------------------|

G|---------------------------------------------------------------------------|
D|---------------------------------------------------------------------------|
A|-0-0-0-0-0-0-0-0-2-2-2-2-2-2-2-2-----------------5-5-5-5-5-5-4-------------|
E|---------------------------------2-2-2-2-2-2-2-2---------------------------|

G|---------------------------------------------------------------------------|
D|---------------------------------4-4-4-4-4-4-4/5---------------------------|
A|-0-0-0-0-0-0-0-0-2-2-2-2-2-2-2-2-----------------5-5-5-5-5-5-4-------------|
E|---------------------------------------------------------------------------|

G|---------------------------------------------------------------------------|
D|---------------------------------------------------------------------------|
A|-0-0-0-0-0-0-0-0-2-2-2-2-2-2-2-2-----------------5-5-5-5-5-5-4-------------|
E|---------------------------------2-2-2-2-2-2-2-2---------------------------|

Pre-Chorus (5:44 - 5:59)

G|---------------------------------------------------------------------------|
D|---------------------------------0~----------------------------------------|
A|-0~------------------------------------------------------------------------|
E|---------------------------------------------------------------------------|x2

Chorus (5:59 - 6:29)

G|---------------------------------------------------------------------------|
D|---------------------------------------------------------------------------|
A|-0-0-0-0-0-0-0-0-2-2-2-2-2-2-2-2-4-4-4-4-4-4-4-4-5-5-5-5-5-5-5-4-----------|
E|---------------------------------------------------------------------------|x4

Interlude (6:29 - 6:59)

G|---------------------------------2~----------------------------------------|
D|-------------------------------------------------2~------------------------|
A|-4~--------------5~--------------------------------------------------------|
E|---------------------------------------------------------------------------|

G|-6~--------------7~------------------2~------------------------------------|
D|-------------------------------------------------2~------------------------|
A|-~-------------------------------------------------------------------------|
E|---------------------------------------------------------------------------|x3

Final Choruses (6:59 - 7:58)

G|---------------------------------------------------------------------------|
D|---------------------------------------------------------------------------|
A|-0-0-0-0-0-0-0-0-2-2-2-2-2-2-2-2-4-4-4-4-4-4-4-4-5-5-5-5-5-5-5-4-----------|
E|---------------------------------------------------------------------------|x8

End (7:58 - 8:00)

G|---------------------------------------------------------------------------|
D|---------------------------------------------------------------------------|
A|-0~---0~---0~--------------------------------------------------------------|
E|---------------------------------------------------------------------------|

| /  slide up
| \  slide down
| h  hammer-on
| p  pull-off
| ~  let ring
| +  harmonic
| x  Mute note
===============================================================================

            
            
Suggest correction
Creating personal tab
Creating personal tab
You can edit any tab online and save it as your Personal.

You can edit, replace or remove any tab part or add personal notes – all changes will be seen only by you.

Personal tabs can be accessed anytime from any device, even offline.
Learn more »
Give kudos to tab author, rate the tab!
1 2 3 4 5
comments
print report bad tab
1 comment total.
0 reply
i-empire-swed 31 Aug 28, 2007 03:46 PM

that is 100 percent correct in my eyes and ears!

guest
You may want to rate the tab now too:
select rating
Wanna post a correction for this tab? Suggest correction