Oops, an error
Loading. Please wait.

The Adventure tab

4,702 views 144 this week
no commentswrite comment
1 2 3 4 5
x 6
add to favorites
×
Save as Personal and add changes to this tab that will be seen only by you. Learn more ›
×
You can save this tab as Personal to edit and correct it or add notes. All changes will be seen only by you. Learn more »
launch autoscroll
font size
0
reset
how to read this tab
guitar tuner
backing track
0:00
0:00
edit
Autoscroll
slow
fast
+/-
esc
set tempo
stop
About this tab version
This is the version for the lead guitar with delay. Other versions only showcase the tab for the secondary rhythm guitar. Was this info helpful? Yes No
This tab was created by me after watching DannyFOB's YouTube cover of this song.
All notes are relative to the capo (2nd fret)
The guitar uses delay on all of the parts of this song. Every part has the same amount 
of delay.
I recommend you to listen to the recorded version to adjust your delay settings for best results.


[Intro Riff]

(00:25)

  PM-----------------|
e|-------------------|
B|-------------------|
G|-----9-9-----7-6---|
D|-7-------7-6-------|
A|---0---------------|
E|-------------------|


[Main Riff]

(00:47)
e|----------------------------------------------------------------|
B|----------------------------------------------------------------|
G|-9-9-9-7-7-7-6-6-7-7-7-6-6-6----7-7-7-6-6-6---------------------|
D|-----------------------------7-7------------7-7-----------------|x2
A|------------------------------------------------7-7-7-5-5-5-4-4-|
E|----------------------------------------------------------------|


[Second Riff]

(01:00)
PM  |---| |---|      |---| |---| |--|
e|----------------------------------|
B|----------------------------------|
G|-9-----9-----9-12-7-----6-----6---|
D|---7-----7----------7-----7-------|x2
A|-----0-----0----------0-----0---0-|
E|----------------------------------|


[Main Riff]

(01:07)
e|----------------------------------------------------------------|
B|----------------------------------------------------------------|
G|-9-9-9-7-7-7-6-6-7-7-7-6-6-6----7-7-7-6-6-6---------------------|
D|-----------------------------7-7------------7-7-----------------|
A|------------------------------------------------7-7-7-5-5-5-4-4-|
E|----------------------------------------------------------------|


[Verse]

(01:13)
PM                |--------------|                |--------------||
e|-------------------------------|-------------------------------||
B|-----------------2-----3-----2-|-----------------2-----3-----2-||
G|-2-2-2-2-2-2-2-2---2-2---2-2---|-2-2-2-2-2-2-2-2---2-2---2-2---||
D|-------------------------------|-------------------------------||
A|-------------------------------|-------------------------------||
E|-------------------------------|-------------------------------||

PM                |--------------| 
e|-------------------------------|----------------------------------|   |----|
B|-----------------2-----3-----2-|----------------------------------|   |----|
G|-2-2-2-2-2-2-2-2---2-2---2-2---|-2-2-2-2-2-2-2-2/-4-4-4-4-4-4-4-4-|   |-2~-|
D|-------------------------------|----------------------------------|x2 |-2~-|x1
A|-------------------------------|----------------------------------|   |-0~-|
E|-------------------------------|----------------------------------|   |----|


Break (01:41-01:54)


[Main Riff]

(01:54)
e|-------------------------------------------------------------------|
B|-------------------------------------------------------------------|
G|-9-9-9-7-7-7-6-6-7-7-7-6-6-6----7-7-7-6-6-6------------------------|
D|-----------------------------7-7------------7-7--------------------|x2
A|-------------------------------------------------7-7-7--5-5-5--4-4-|
E|-------------------------------------------------------------------|


[Verse]

(02:07)
PM                |--------------|                |--------------||
e|-------------------------------|-------------------------------||
B|-----------------2-----3-----2-|-----------------2-----3-----2-||
G|-2-2-2-2-2-2-2-2---2-2---2-2---|-2-2-2-2-2-2-2-2---2-2---2-2---||
D|-------------------------------|-------------------------------||
A|-------------------------------|-------------------------------||
E|-------------------------------|-------------------------------||

PM                |--------------|
e|-------------------------------|----------------------------------|   |----|
B|-----------------2-----3-----2-|----------------------------------|   |----|
G|-2-2-2-2-2-2-2-2---2-2---2-2---|-2-2-2-2-2-2-2-2/-4-4-4-4-4-4-4-4-|   |-2~-|
D|-------------------------------|----------------------------------|x2 |-2~-|x1
A|-------------------------------|----------------------------------|   |-0~-|
E|-------------------------------|----------------------------------|   |----|


[Break]

(02:34-03:13)


[Outro 1]

(03:13)
e|-12-------------------------------------------10---9----|
B|------10---10---10---12---12--10---10---10-----------10-|
G|----9----9----9----9----9--------9----9-----9----9------|
D|--------------------------------------------------------|x2
A|--------------------------------------------------------|
E|--------------------------------------------------------|


[Outro 2]

(03:26)
PM   |---|  |---|  |-|  |---|  |---|  |-|  |---|  |---|  |-|  |---|  |---|  |--|
e|-----------------------------------------------------------------------------|
B|-10-----10-----10---10-----10-----10---10-----10-----10---12-----12-----12---|
G|----9-9----9-9----9----9-9----9-9----9----9-9----9-9----9----9-9----9-9----9-|
D|-----------------------------------------------------------------------------|
A|-----------------------------------------------------------------------------|
E|-----------------------------------------------------------------------------|

Play [Outro 1]
(03:33)

Play [Outro 2]
(03:40)

Play [Outro 1]
(03:47)


[Outro 3]

(03:54)
e|-12------------------------12------------------------|
B|-------10---10---10---12---------10---10---10---12---|
G|-----9----9----9----9----9-----9----9----9----9----9-|
D|-----------------------------------------------------|x4
A|-----------------------------------------------------|
E|-----------------------------------------------------|


[Intro Riff]
(04:20)

  PM---------------|
e|-----------------|
B|-----------------|
G|-----9-9-----7-6-|
D|-7-------7-6-----|
A|---0-------------|
E|-----------------|


************************************

| /  Slide up
| ~  Hold note

************************************

            
            
Suggest correction
Creating personal tab
Creating personal tab
You can edit any tab online and save it as your Personal.

You can edit, replace or remove any tab part or add personal notes – all changes will be seen only by you.

Personal tabs can be accessed anytime from any device, even offline.
Learn more »
comments
print report bad tab
guest
You may want to rate the tab now too:
select rating
Wanna post a correction for this tab? Suggest correction