Oops, an error
Loading. Please wait.

Valkyrie Missile tab

version 1
version 1

Whole song

Interactive

19,968 views 21 this week
6 commentsread comments
1 2 3 4 5
x 7
add to favorites
×
Save as Personal and add changes to this tab that will be seen only by you. Learn more ›
×
You can save this tab as Personal to edit and correct it or add notes. All changes will be seen only by you. Learn more »
launch autoscroll
font size
0
reset
how to read this tab
guitar tuner
edit
Autoscroll
slow
fast
+/-
esc
set tempo
stop
Difficulty
intermediate
Song:      Valkyrie Missile
Artist:    Angels and Airwaves
Album:     We Don't Need To Whisper
Tabbed By: John Testa

::INTRO::

GUITAR 1:
e|--------------------------------------|
B|--------------------------------------|
G|--------------------------------------|
D|---2---2-0h2-2s4----------------------|  (10x)
A|-0---0-----------5---5-4-5-4-2/4--2p0-|
E|--------------------------------------|

GUITAR 2:
e|-----------------------------------------|
B|-----------------------------------------|
G|-----------------------7----7----6----6--|
D|-----------------------------------------|  (12x)
A|---7----7----7----7--55-5-55-5-44-4-44-4-|
E|-55-5-55-5-55-5-55-5---------------------|

::VERSE::

GUITAR 1:
e|---------------------|
B|---------------------|
G|-6~--------9---7---6-|
D|-x-------------------|  (8x)
A|-4~------------------|
E|------5~-------------|

GUITAR 2:
e|------------------------------|
B|------------------------------|
G|-6666----6666----6666----6666-|
D|-7777----7777----7777----7777-|
A|-0000----0000----0000----0000-|
E|------------------------------|

::CHORUS (BASS PART PLAYS HERE)::

e|-----------------------------------------|
B|-----------------------------------------|
G|-----------------------7----7----6----6--|
D|-----------------------------------------|  (7x)
A|---7----7----7----7--55-5-55-5-44-4-44-4-|
E|-55-5-55-5-55-5-55-5---------------------|

::REPEAT VERSE HERE::

::CHORUS (BASS PART PLAYS HERE)::

::INTERLUDE PT.1::

GUITAR 1:
e|-------------7---------------------7---------|
B|---10---10------9--9-9---10---10------9--9-9-|
G|-----9----9------9---------9----9------9-----|
D|--7----7----7-77--7-7---7----7----7-77--7-7--|  (4x)
A|---------------------------------------------|
E|---------------------------------------------|

GUITAR 2:
e|---------------------------------------------|
B|---------------------------------------------|
G|-2~------------------------------------------|
D|-x-------------------------------------------|  (4x)
A|-0~------------------------------------------|
E|---------------------------------------------|

::INTERLUDE PT.2::

GUITAR 1:
e|-------------7---------------------7---------|
B|---10---10------9--9-9---10---10------9--9-9-|
G|-----9----9------9---------9----9------9-----|
D|--7----7----7-77--7-7---7----7----7-77--7-7--|  (4x)
A|---------------------------------------------|
E|---------------------------------------------|

GUITAR 2:
e|----|----------------------|
B|----|----------------------|
G|----|----------------------|
D|----|-12/11--7/9--12/11-11-| (x6)
A|-0~-|--x/-x--x/x---x/-x--x-|
E|----|-10/-9--5/7--10/-9--9-|

e|----------------------------------------------------|
B|----------------------------------------------------|
G|----------------------------------------------------|
D|----12/11--7/9--7/9--9---12/11--7/9--7/9--9/11--7~~-|
A|-0~--x/-x--x/x--x/x--x----x/-x--x/x--x/x--x/-x--x---|
E|----10/-9--5/7--5/7--7---10/-9--5/7--5/7--7/-9--5~~-|

            
            
Suggest correction
Creating personal tab
Creating personal tab
You can edit any tab online and save it as your Personal.

You can edit, replace or remove any tab part or add personal notes – all changes will be seen only by you.

Personal tabs can be accessed anytime from any device, even offline.
Learn more »
comments
print report bad tab
6 comments total. Showing first comments.
-2 reply
Stevie B 390 Apr 15, 2006 03:29 AM

where do i get this song??

0 reply
blinkrocks 127 May 20, 2006 07:24 AM

you can lisnen to it on www.purevolume.com/angelsandairwaves

what the heck the 1st guitar that u have writte is bass if you watch ryran sinn playing it live you can tell http://youtube.com/watch?v=V084eBvs1Bg&search=angels%20and%20airwaves

0 reply
blinkerdude182 30 Aug 13, 2006 12:22 PM

good call with the bass and the verse is

e|--------------------------|
B|--------------------------|
G|-6~--------9---7---6--4~--|
D|-x--------------------x---| (8x)
A|-4~-------------------2~--|
E|------5~------------------|

guest
Wanna post a correction for this tab? Suggest correction