Oops, an error
Loading. Please wait.

Valkyrie Missle bass

965 views 1 this week
1 commentread comment
1 2 3 4 5
x 4
add to favorites
×
Save as Personal and add changes to this tab that will be seen only by you. Learn more ›
×
You can save this tab as Personal to edit and correct it or add notes. All changes will be seen only by you. Learn more »
launch autoscroll
font size
0
reset
guitar tuner
edit
Autoscroll
slow
fast
+/-
esc
set tempo
stop
This Bass Tab To Me Is 100% Right… But If It Doesn’t Sound Right Its Ether You Are Not 
The Song Right Or I Missed Some Parts In The Song. But Other Wise Here’s The Bass Tab For 
Song

Bass Line Start 1:30
G|-9-9-9-9-8888-11-8—-8-9-8-9—9-----|
D|-----------------------------9-8--|X7
A|----------------------------------|
E|----------------------------------|


2:15,
G|-----------------------------|
D|-----------------------------|
A|-7(x40)-5(x40)-2(x40)-0(x40)-|
E|-----------------------------|

Every One, Every One Will Listen…
G|-----------------------------------------------------------------------|
D|-----------------------------------------------------------------------|
A|-0~------------------------0~----------------------0~------------------|x3
E|-----------------------------------------------------------------------|

3:05, “You Might Hear The Pitch Change But This Is How You Do It”
G|----------------------------|
D|----------------------------|
A|-0x80/5555555555577777777777|x2
E|----------------------------|

3:31,
G|---------------------|
D|---------------------|
A|-9x40-5x40-0x40-2x40-|
E|---------------------|

3:56,
G|---------------------|
D|---------------------|
A|-0x40-5x40-2x40-0x40-|
E|---------------------|

4:22, I Got A Whole Hell A lot To Say, Even If It Hurts Some Times
G|-----------------------------------------------------------------------|
D|-----------------------------------------------------------------------|
A|-0~--------------------------0~------------------------0~--------------|x3
E|-----------------------------------------------------------------------|

4:47
G|----------------------------|
D|----------------------------|
A|-0x80/5555555555577777777777|x2
E|----------------------------|

5:13
G|---------------------|
D|---------------------|
A|-9x40-5x40-0x40-2x40-|
E|---------------------|

5:38
G|-----------------------------------------------------------------------|
D|-----------------------------------------------------------------------|
A|-0~------------------------0~---------------------------0~-------------|
E|-----------------------------------------------------------------------|

5:57
G|--------------------------|
D|--------------------------|
A|-7x40-5x40-0x40-2x40-0x50-|
E|--------------------------|

Hope You Like My Tab I Believe Its 100% Right. If Not Its Sounds Great
Suggest correction
Creating personal tab
Creating personal tab
You can edit any tab online and save it as your Personal.

You can edit, replace or remove any tab part or add personal notes – all changes will be seen only by you.

Personal tabs can be accessed anytime from any device, even offline.
Learn more »
comments
print report bad tab
1 comment total.
0 reply
jazonzdaman 10 Sep 16, 2006 07:33 PM

great tab but the intro is a bit off

guest
You may want to rate the tab now too:
select rating
Wanna post a correction for this tab? Suggest correction