Oops, an error
Loading. Please wait.

Young London intro tab

version 1
version 1

Intro

Whole song

Interactive

4,158 views 1 this week
5 commentsread comments
1 2 3 4 5
1 last vote to show rating
add to favorites
×
Save as Personal and add changes to this tab that will be seen only by you. Learn more ›
×
You can save this tab as Personal to edit and correct it or add notes. All changes will be seen only by you. Learn more »
launch autoscroll
font size
0
reset
how to read this tab
guitar tuner
edit
Autoscroll
slow
fast
+/-
esc
set tempo
stop
Author
Difficulty
-------------------------------------------------------------------------------
                             Young London - Angels & Airwaves
-------------------------------------------------------------------------------
Tabbed by: Matt J
Email: spyker8@hotmail.com

Tuning: Standard

Date: February 13 2010


Lead guitar -

e|9-0-9-0-10-0-9-0-7-0-5-0-4-0-5-0-4-0-5-0-4-0-5-0-9-0-7-0-9-0-7-0----------|
B|--------------------------------------------------------------------------|
G|--------------------------------------------------------------------------|
D|--------------------------------------------------------------------------|
A|--------------------------------------------------------------------------|
E|--------------------------------------------------------------------------|


e|9-0-9-0-10-0-9-0-7-0-5-0-4-0-5-0-4-0-5-0-4-0-5-0-9-0-5-0-4-0-5-0----------|
B|--------------------------------------------------------------------------|
G|--------------------------------------------------------------------------|
D|--------------------------------------------------------------------------|
A|--------------------------------------------------------------------------|
E|--------------------------------------------------------------------------|


Another guitar plays an A power chord
Suggest correction
Creating personal tab
Creating personal tab
You can edit any tab online and save it as your Personal.

You can edit, replace or remove any tab part or add personal notes – all changes will be seen only by you.

Personal tabs can be accessed anytime from any device, even offline.
Learn more »
Give kudos to tab author, rate the tab!
1 2 3 4 5
comments
print report bad tab
5 comments total. Showing first comments.
0 reply
MDMetal! 10 Feb 21, 2010 10:49 AM

Tab isnt even close - sorry :-(

0 reply
sidewinderarcas 20 Feb 21, 2010 03:08 PM

This is way off. Sounds more like this:

e|10-13-11-10-8-10-8-6-5-6-8-6-10-6-10-8-------------------------------|
B|--------------------------------------------------------------------------|
G|--------------------------------------------------------------------------|
D|--------------------------------------------------------------------------|
A|--------------------------------------------------------------------------|
E|--------------------------------------------------------------------------|

e|10-13-11-10-8-10-8-6-5-6-8-6-10-6-5-6--------------------------------|
B|--------------------------------------------------------------------------|
G|--------------------------------------------------------------------------|
D|--------------------------------------------------------------------------|
A|--------------------------------------------------------------------------|
E|--------------------------------------------------------------------------|

0 reply
Spyker8 115 Feb 22, 2010 01:56 PM

@sidewinderarcas

Those frets are the wrong notes... 13, 8 and 6 are never played.

I did tab this wrong but hey, this was like 2 days after the album came out and I only see one wrong spot, it should look like this.

e|9-0-9-0-10-0-9-0-7-0-9-0-7-0-5-0-4-0-5-0-4-0-5-0-9-0-7-0-9-0-7-0----------|
B|--------------------------------------------------------------------------|
G|--------------------------------------------------------------------------|
D|--------------------------------------------------------------------------|
A|--------------------------------------------------------------------------|
E|--------------------------------------------------------------------------|

e|9-0-9-0-10-0-9-0-7-0-9-0-7-0-5-0-4-0-5-0-4-0-5-0-9-0-5-0-4-0-5-0----------|
B|--------------------------------------------------------------------------|
G|--------------------------------------------------------------------------|
D|--------------------------------------------------------------------------|
A|--------------------------------------------------------------------------|
E|--------------------------------------------------------------------------|

guest
You may want to rate the tab now too:
select rating
Wanna post a correction for this tab? Suggest correction