Oops, an error
Loading. Please wait.

Crystal Night tab

157 views 1 this week
no commentswrite comment
1 2 3 4 5
3 more votes to show rating
add to favorites
×
Save as Personal and add changes to this tab that will be seen only by you. Learn more ›
×
You can save this tab as Personal to edit and correct it or add notes. All changes will be seen only by you. Learn more »
launch autoscroll
font size
0
reset
how to read this tab
guitar tuner
edit
Autoscroll
slow
fast
+/-
esc
set tempo
stop
[Intro]

e|---------------------------------------------------------------------------|
B|---------------------------------------------------------------------------|
G|---------------------------------------------------------------------------|
D|---------------------------------------------------------------------------|
A|---------------------------------------------------------------------------|
D|--/12----------------------------------------------------------------------|


************************************************************************
E|---------------------------------------------------------------------------|
B|---------------------------------------------------------------------------|
G|---------------------------------------------------------------------------|
D|-------------------------------3h4--1h2--0p1-------------------------------|
A|-3-5-6-5-3--5-6-5~~--3h4--5h6----------------------------------------------|
D|---------------------------------------------------------------------------|
                                       
                                                                               2x (Repetir/repeat)
************************************************************************     
E|---------------------------------------------------------------------------|
B|---------------------------------------------------------------------------|
G|---------------------------------------------------------------------------|
D|---------------------------------------------------------------------------|
A|-3-5-6-5-3--5-6-5~~--------------------------------------------------------|
D|--------------------7-8-9--5-6-8-5--0-3-4-6-4-3-0-1~~----------------------|


[Verse]

  ***********        ********    *
E|---------------------------------------------------------------------------|
B|---------------------------------------------------------------------------|
G|------------8/-7----------8~----8/--10-------------------------------------|
D|-0----------8/-7----------8~----8/--10-------------------------------------|2x (Repetir/Repeat)
A|-0-0-0-0-0--6/-5--0-0-0-0-6~-0~-6/--8--------------------------------------|
D|-0-0-0-0-0--------0-0-0-0----0~--------------------------------------------|


*****************************
E|---------------------------------------------------------------------------|
B|---------------------------------------------------------------------------|
G|----------------------------8-8-8/-7---------------------------------------|
D|-00-00----------------------8-8-8/-7---------------------------------------|
A|-00-00--000-000-000-000-000-6-6-6/-5---------------------------------------|
D|-00-00--000-000-000-000-000------------------------------------------------|
                   
                                                                            2x(Repetir/Repeat)
**********************                                                       
E|---------------------------------------------------------------------------|
B|---------------------------------------------------------------------------|
G|---------------------------------------------------------------------------|
D|------------------------------7-8-9~---------------------------------------|
A|-000-000-000-000-000-----5-6-8---------------------------------------------|
D|-000-000-000-000-000--5-8--------------------------------------------------|


[Pre-Chorus]

 **********************     **********************
E|---------------------------------------------------------------------------|
B|---------------------------------------------------------------------------|
G|---------------------8/-7------------------------8-8-8/-10-----------------|
D|-0-------------------8/-7------------------------8-8-8/-10-----------------|
A|-0-0-0-0-0-0-0-0-0-0-6/-5--0-0-0-0-0-0-0-0-0-0-0-6-6-6/-8------------------|    2x (Repetir/Repeat)
D|-0-0-0-0-0-0-0-0-0-0-------0-0-0-0-0-0-0-0-0-0-0---------------------------|


[Chorus]

E|---------------------------------------------------------------------------|
B|---------------------------------------------------------------------------|
G|---------------------------------------------------------------------------|    2x(Repeat)
D|---------------------------------------------------------------------------|
A|-----0h2-0h3-0h5-0h5-3-2-0h2-0h3-0h5-0h5-6h8-------------------------------|
D|-12/-----------------------------------------------------------------------|

E|---------------------------------------------------------------------------|
B|---------------------------------------------------------------------------|
G|---------------------------------------------------------------------------|
D|---------------------------------------------------------------------------|
A|--2-0-2-2h4-4-0-4-4h6-6-0-6-6h8-8-0-8--------------------------------------|
D|---------------------------------------12/---------------------------------|


[Verse]

  **********        *******    *
E|---------------------------------------------------------------------------|
B|---------------------------------------------------------------------------|
G|------------8/-7----------8~----8/--10-------------------------------------|
D|-0----------8/-7----------8~----8/--10-------------------------------------|2x (Repetir/Repeat)
A|-0-0-0-0-0--6/-5--0-0-0-0-6~-0~-6/--8--------------------------------------|
D|-0-0-0-0-0--------0-0-0-0----0~--------------------------------------------|


  **************************
E|---------------------------------------------------------------------------|
B|---------------------------------------------------------------------------|
G|----------------------------8-8-8/-7---------------------------------------|
D|-00-00----------------------8-8-8/-7---------------------------------------|
A|-00-00--000-000-000-000-000-6-6-6/-5---------------------------------------|
D|-00-00--000-000-000-000-000------------------------------------------------|
                          
                                                                          2x(Repetir/Repeat)
**********************                                                        
E|---------------------------------------------------------------------------|
B|---------------------------------------------------------------------------|
G|---------------------------------------------------------------------------|
D|------------------------------7-8-9~---------------------------------------|
A|-000-000-000-000-000-----5-6-8---------------------------------------------|
D|-000-000-000-000-000--5-8--------------------------------------------------|


[Pre-Chorus]

**********************     **********************
E|---------------------------------------------------------------------------|
B|---------------------------------------------------------------------------|
G|---------------------8/-7------------------------8-8-8/-10-----------------|
D|-0-------------------8/-7------------------------8-8-8/-10-----------------|
A|-0-0-0-0-0-0-0-0-0-0-6/-5--0-0-0-0-0-0-0-0-0-0-0-6-6-6/-8------------------| 2x (Repetir/Repeat)
D|-0-0-0-0-0-0-0-0-0-0-------0-0-0-0-0-0-0-0-0-0-0---------------------------|


[Chorus]

E|---------------------------------------------------------------------------|
B|---------------------------------------------------------------------------|
G|---------------------------------------------------------------------------| 2x (Repeat/repetir)
D|---------------------------------------------------------------------------|
A|-----0h2-0h3-0h5-0h5-3-2-0h2-0h3-0h5-0h5-6h8-------------------------------|
D|-12/-----------------------------------------------------------------------|

E|-----------------------------------------------------------------------------|
B|-----------------------------------------------------------------------------|
G|-----------------------------------------------------------------------------|
D|-----------------------------------------------------------------------------|
A|--2-0-2-2h4-4-0-4-4h6-6-0-6-6h8-8-0-8----------------------------------------|
D|---------------------------------------12/-----------------------------------|


[Pré-solo]

E|---------------------------------------------------------------------------|
B|---------------------------------------------------------------------------|
G|---------------------------------------------------------------------------|
D|---6/-5-------6~-------5~-6------------------------------------------------| 
A|-0-6/-5-0-0-0-6~-0-0-0-5~-6------------------------------------------------|
D|-0-6/-5-0-0-0-6~-0-0-0-5~-6------------------------------------------------|


[SOLO]

E|---------------------------------------------------------------------------|
B|--/15-15-16-18-16-15-16-15-------------------------------------------------|
G|---------------------------16~~-15~~---------------------------------------|
D|---------------------------------------------------------------------------|
A|---------------------------------------------------------------------------|
D|---------------------------------------------------------------------------|

E|---------------------------------------------------------------------------|
B|--7/-7-7/-10-10/12-12/-14-14/-12-12/-8~------------------------------------|
G|--x--x-x--x--x--xx---------------------------------------------------------|
D|--5/-9-9/-8--8/-10-10/-12-12/-10-10/-6~------------------------------------|
A|---------------------------------------------------------------------------|
D|---------------------------------------------------------------------------|

E|-----------------------------------------------------------------------------|
B|-----------------------------------------------------------------------------|
G|-----------------------------------------------------------------------------|
D|-7h9-9t10t910t9t10t9t10-9h12-13t12t13t12t13t12~------------------------------|
A|-----------------------------------------------------------------------------|
D|-----------------------------------------------------------------------------|

E|------------------15-------------------------------------------------------|
B|----------/14b-15b--15b------------------10~-10-12-13b~--------------------|
G|------/7------------------/10-10/12\10-9-----------------------------------|
D|--/12----------------------------------------------------------------------|
A|---------------------------------------------------------------------------|
D|---------------------------------------------------------------------------|

E|---------------------------------------------------------------------------|
B|-9-8--9-9-12-10-9-7-7--5--1~-----------------------------------------------|
G|---------------------------------------------------------------------------|
D|-7-10-7-7-10-8--7-5-5--3--3~-----------------------------------------------|
A|---------------------------------------------------------------------------|
D|---------------------------------------------------------------------------|


  ************************************************************
E|---------------------------------------------------------------------------|
B|---------------------------------------------------------------------------|
G|---------------------------------------------------------------------------|
D|---------------------------------------------------------------------------|
A|---------------------------------------7-8-10-8-9-11-9-11-12~~-------------|
D|-3-4-5-3h4h5-5-6-8-5h6h8-7-8-10-7h8h10-------------------------------------|

E|---------------------------------------------------------------------------|
B|-----------------------------~14b-15b~~------------------------------------|
G|-5-8-5-6-8-5-8-5-8-6-5-6~~-------------------------------------------------|
D|---------------------------------------------------------------------------|
A|---------------------------------------------------------------------------|
D|---------------------------------------------------------------------------|
..............................................................................
Now Make 1-chorus and 2-intro again and is done. .



************************************

| x  Dead note
| h  Hammer-on
| p  Pull-off
| t  Tapping
| b  Bend
| /  Slide up
| \  Slide down
| ~  Vibrato

************************************
Suggest correction
Creating personal tab
Creating personal tab
You can edit any tab online and save it as your Personal.

You can edit, replace or remove any tab part or add personal notes – all changes will be seen only by you.

Personal tabs can be accessed anytime from any device, even offline.
Learn more »
Give kudos to tab author, rate the tab!
1 2 3 4 5
comments
print report bad tab
guest
You may want to rate the tab now too:
select rating
Wanna post a correction for this tab? Suggest correction