Oops, an error
Loading. Please wait.

Angels Of Light Acoustic tab

244 views 6 this week
no commentswrite comment
1 2 3 4 5
3 more votes to show rating
add to favorites
×
Save as Personal and add changes to this tab that will be seen only by you. Learn more ›
×
You can save this tab as Personal to edit and correct it or add notes. All changes will be seen only by you. Learn more »
launch autoscroll
font size
0
reset
how to read this tab
guitar tuner
edit
Autoscroll
slow
fast
+/-
esc
set tempo
stop
Author
Difficulty
[Intro]
          You probably need long fingers for this one
     
GUITAR 1                                                                                  x4    
e|-----5---------5-----5-----5-----5-----5-----5---||-------------------------------------|| 
B|----3---------3-----3-----3/5---5-----5-----5----||--5-5-(5)--5-5-(5)--5-5-(5)-5-5-(5)--|| Repeat 
G|---6---------6-----6-----6-----7-----7\6---6-----||--7\6-(6)--6/7-(7)--7/9-(9)-9\7-(7)--|| every ghost note 
D|--7---------7-----7-----7-----7-----7-----7------||--7-7-(7)--7-7-(7)--7-7-(7)-7-7-(7)--|| 4 times
A|-0---------0-----0-----0-----5-----5-----5-------||--5-5-(5)--5-5-(5)--5-5-(5)-5-5-(5)--||
E|-------------------------------------------------||-------------------------------------||

GUITAR 2
e|-------------------------------------------------||-------------------------------------||
B|-------------------------------------------------||-------------------------------------||
G|-------------------------------------------------||-------------------------------------||
D|-------------------------------------------------||---0-------0-------0-------0-------0-||
A|-------------------------------------------------||-------4-------4-------4-------4-----||
E|-------------------------------------------------||-5---5---5---5---5---5---5---5---5---||




[Verse]

               (Bm)                  x2   (A)                   x2
          e||------------------------||-------------------------||
          B||----------7-------7-----||-----------5-------5-----||
          G||--------7-----9-----7---||---------6-----7-----7---||
GUITAR 1: D||------9-----9---9-------||-------7-----7---7-------||
          A||----9-----------------9-||-----7-----------------7-||
          E||--7---------------------||---5---------------------||

    And you're La.........zy,  so there's No.........thing

          e||----------'5---------'5-||---------'5---------'5---||
          B||--------5-5--------5-5--||-------5-5--------5-5----||
          G||------7----------7------||-----7----------7--------||
GUITAR 2: D||----7----------7--------||---7----------7----------||
          A||--5----------5----------||-0----------0------------||
          E||------------------------||-------------------------||
                                     x2                         x2


               (Bm)                  x2   (A)
          e||-------------------------||-------------------------|-------------------------|
          B||-----------7-------7-----||-----------5-------5-----|-------------------------|
          G||---------7-----9-----7---||---------6-----7-----7---|-------------------------|
GUITAR 1: D||-------9-----9---9-------||-------7-----7---7-------|-------------------------|
          A||-----9-----------------9-||-----7-----------------7-|-------------------------|
          E||---7---------------------||---5---------------------|---5---------------------|

      that can Stop  you  now        from Slee......................ping

          e||----------'5---------'5-||---------'5---------'5---|-------------------------|
          B||--------5-5--------5-5--||-------5-5--------5-5----|--(5)--------------------|
          G||------7----------7------||-----7----------7--------|-------------------------|
GUITAR 2: D||----7----------7--------||---7----------7----------|---7---------------------|
          A||--5----------5----------||-0----------0------------|-0-----------------------|
          E||------------------------||-------------------------|-------------------------|
                                     x2

          ...End the song with Bm (the first one)



[Lyrics]

And you're lazy / so there's nothing
That can stop you now / from sleeping
And your breathing / in a silence
That will drug you now / so completely
That you're drowning / in a liquid
That is glowing / with strange substance
And your mind will / show you pictures
Of your body / without feeling
And you're rising / to the surface
Of awareness / that's unconscious
And you're dreaming / of real violence
With no consequence / with no meaning
You're not free now / but unfolding
And you're beautiful / in the light
You're not free now / you're not innocent
You're transparent / and you're right

(Guitar 2 doesn't play in this last verse)

Nananana / nananana                         
Nananana / nananana                       
Nanana                                   
   (Bm)


************************************

 /    Slide up
 \    Slide down
 '    Almost immediately after the note below
( )   Ghost note (play very lightly)

************************************
Suggest correction
Creating personal tab
Creating personal tab
You can edit any tab online and save it as your Personal.

You can edit, replace or remove any tab part or add personal notes – all changes will be seen only by you.

Personal tabs can be accessed anytime from any device, even offline.
Learn more »
Give kudos to tab author, rate the tab!
1 2 3 4 5
comments
print report bad tab
guest
You may want to rate the tab now too:
select rating
Wanna post a correction for this tab? Suggest correction