Oops, an error
Loading. Please wait.

Take A Long Line Tab

4,567 views 6 this week
3 commentsread comments
1 2 3 4 5
accurate
x 5
add to favorites
launch autoscroll
font size
0
reset
how to read this tab
guitar tuner
Tab Pro tools
  • play this tab
  • loop segment
  • change instrument
  • show fretboard
  • metronome
×
Best way to learn
"Take A Long Line"
Autoscroll
slow
fast
+/-
esc
set tempo
stop
Contributor
Difficulty
novice
-------------------------------------------------------------------------------
                    TAKE A LONG LINE - The Angles
-------------------------------------------------------------------------------

Tabbed by: Bunna
Email: spunk_jockey55@hotmail.com

Tuning: E A D G B e

Intro

e|-------------------|
B|-------------------|
G|-------------------|             x4
D|-7-----------7--5--|
A|-7-----------7--5--|
E|-5-----------5--5--|

Main Riff
e|-------------------------------------------------------------------------------------------|
B|-------------------------------------------------------------------------------------------|
G|----------------------------------------------------------------------------|         x12--|
D|-------------7-------------------- 7-5-----------------------------------------------------|
A|-------------7-------------------- 7-5-----------------------------------------------------|
E|--5-5-5-5-5----5-5-5-5-5-5-5-5-------------------------------------------------------------|

Chorus
e|-----------------------|
B|-----------------------|
G|-----------------------|           x3
D|-7-7-7-7------9-9-9-9--|
A|-7-7-7-7------9-9-9-9--|
E|-5-5-5-5------7-7-7-7--|

Verse
e|----------------------------------------|
B|----------------------------------------|
G|----------------------------------------|         x6
D|-------------7-------------------- 7-5--|
A|-------------7-------------------- 7-5--|
E|--5-5-5-5-5----5-5-5-5-5-5-5-5----------|

Chorus
e|-----------------------|
B|-----------------------|
G|-----------------------|           x3
D|-7-7-7-7------9-9-9-9--|
A|-7-7-7-7------9-9-9-9--|
E|-5-5-5-5------7-7-7-7--|

Pre-Solo
e|-----------------------------------------------------------------------------|
B|-----------------------------------------------------------------------------|
G|-----------------------------------------------------------------------------|
D|-7-7-7-7-7-7-7-7-7-7-7-7-7-7-7-7-7-7-7---------------------------------------|
A|-7-7-7-7-7-7-7-7-7-7-7-7-7-7-7-7-7-7-7---------------------------------------|
E|-5-5-5-5-5-5-5-5-5-5-5-5-5-5-5-5-5-5-5---------------------------------------|

Solo
e|-----------------------------------------------------------------------------|
B|-14-12-10-13---13-12-10-12----------12---------------------------------------|
G|---------------------------------------14-13------14-13-11-10----------------|
D|-----------------------------------------------------------------------------|
A|-----------------------------------------------------------------------------|
E|-----------------------------------------------------------------------------|

e|----------------------------------12-12-11------------------------------------------|
B|-14-12-10-12-13-12-10---------------------------12----------------------------------|
G|------------------------------------------------14-13-------14-13-11-10-------------|
D|------------------------------------------------------------------------------------|
A|------------------------------------------------------------------------------------|
E|------------------------------------------------------------------------------------|

Verse
e|-------------------------------------------------------------------------------------------|
B|-------------------------------------------------------------------------------------------|
G|----------------------------------------------------------------------------|         x12--|
D|-------------7-------------------- 7-5-----------------------------------------------------|
A|-------------7-------------------- 7-5-----------------------------------------------------|
E|--5-5-5-5-5----5-5-5-5-5-5-5-5-------------------------------------------------------------|


Chorus
e|--------------------------------------------------------------------------------------------|
B|--------------------------------------------------------------------------------------------|
G|---------------------------------------------------------------------------|           x10--|
D|-7-7-7-7------9-9-9-9-----------------------------------------------------------------------|
A|-7-7-7-7------9-9-9-9-----------------------------------------------------------------------|
E|-5-5-5-5------7-7-7-7-----------------------------------------------------------------------|
comments
print report bad tab
3 comments total.
0 reply
>jktt<..brah. wrote on January 1 2008, 05:56 am

OI you 4got to add the mutes in

0 reply
lachie_45 wrote on July 22 2009, 10:51 pm

-------------------------------------------------------------------------------
TAKE A LONG LINE - The Angels
-------------------------------------------------------------------------------

Tabbed by: Lachie45

Tuning: E A D G B e

Intro

e|-------------------|
B|-------------------|
G|-------------------|
D|-7-----------7--5--|
A|-7-----------7--5--|
E|-5-----------5--5--| x3

e|--------------------|
B|--------------------|
G|------------------7-|
D|-7-----------7--5-7-|
A|-7-----------7--5---|
E|-5-----------5--5---|

Main Riff
e|----------------------------------------|
B|----------------------------------------|
G|----------------------------------------|
D|-------------7-------------------- 7-5--|
A|-------------7-------------------- 7-5--|
E|--5-5-5-5-5----5-5-5-5-5-5-5-5----------| x3
PM\\\\\\\\ PM\\\\\\\\\\\\\\

e|-----------------------------------------|
B|-----------------------------------------|
G|---------------------------------------7-|
D|-------------7-------------------- 7-5-7-|
A|-------------7-------------------- 7-5---|
E|--5-5-5-5-5----5-5-5-5-5-5-5-5-----------|
PM\\\\\\\\ PM\\\\\\\\\\\\\\

Chorus
e|-----------------------|
B|-----------------------|
G|-----------------------|
D|-7-7-7-7------9-9-9-9--|
A|-7-7-7-7------9-9-9-9--|
E|-5-5-5-5------7-7-7-7--| x3

Pre-Solo
e|---------------------------------------|
B|---------------------------------------|
G|---------------------------------------|
D|-7-7-7-7-7-7-7-7-7-7-7-7-7-7-7-7-7-7-7-|
A|-7-7-7-7-7-7-7-7-7-7-7-7-7-7-7-7-7-7-7-|
E|-5-5-5-5-5-5-5-5-5-5-5-5-5-5-5-5-5-5-5-|

Solo
e|------------------------------------------------------------------|
B|-17--17-15-13-16---16-15-13-15----------15------------------------|
G|-------------------------------------------17-15------17-16-14-13-|
D|------------------------------------------------------------------|
A|------------------------------------------------------------------|
E|------------------------------------------------------------------|

e|----------------------------------15-15-14------------------------------|
B|-17-15-13-15-16-15-13---------------------------15----------------------|
G|------------------------------------------------17-16-------17-16-14-13-|
D|------------------------------------------------------------------------|
A|------------------------------------------------------------------------|
E|------------------------------------------------------------------------|

**This version of "Take a Long Line" was taken from "The World's Best Ever Beer Songs 2 (Disc 2)"

0 reply
lachie_45 wrote on July 22 2009, 10:53 pm

NB..The palm mutes didnt copy over from notepad too well, fix them up for yourself

I want to post or [tab]
guest
You may want to rate the tab now too:
select rating
Please do not post tabs as comments. Select "correction" instead!