Oops, an error
Loading. Please wait.

Millenium Sun bass

version 1
version 1

Whole song

Interactive

by Angra
79 views 1 this week
no commentswrite comment
1 2 3 4 5
3 more votes to show rating
add to favorites
×
Save as Personal and add changes to this tab that will be seen only by you. Learn more ›
×
You can save this tab as Personal to edit and correct it or add notes. All changes will be seen only by you. Learn more »
launch autoscroll
font size
0
reset
guitar tuner
backing track
0:00
0:00
edit
Autoscroll
slow
fast
+/-
esc
set tempo
stop
Author
[Intro]

G|-------------------------------------------------|-------------------------------------------------|
D|-------------------------------------------------|-------------------------------------------------|
A|-------------------------------------------------|-------------------------------------------------|
E|-0---0---0---------------------------------------|-0---0---0---------------------------------------|
B|-------------------------------------------------|-------------------------------------------------|

G|-------------------------------------------------|-------------------------------------------------|
D|-------------------------------------------------|-------------------------------------------------|
A|-------------------------------------------------|-------------------------------------------------|
E|-0---0---0---------------------------------------|-0---0---0---------------0/----------17\---------|
B|-------------------------------------------------|-------------------------------------------------|

G|-------------------------------------------------|-------------------------------------------------|
D|-------------------------------------------------|-------------------------------------------------|
A|-------------------------------------------------|-------------------------------------------------|
E|-5---5---5---5---5---5---5---5---5---5---5---5---|-5---5---5---5---5---5---5---5---5---5---5---5---|
B|-------------------------------------------------|-------------------------------------------------|

G|-------------------------------------------------|-------------------------------------------------|
D|-------------------------------------------------|-------------------------------------------------|
A|-------------------------------------------------|-------------------------------------------------|
E|-5---5---5---5---5---5---5---5---5---5---5---5---|-5---5---5---5---5---5---5---5---5---5---5---5---|
B|-------------------------------------------------|-------------------------------------------------|

G|-------------------------------------------------|-------------------------------------------------|
D|-------------------------------------------------|-------------------------------------------------|
A|-------------------------------------------------|-------------------------------------------------|
E|-5---5---5---5---5---5---5---5---5---5---5---5---|-5---5---5---5---5---5---5---5---5---5---5---5---|
B|-------------------------------------------------|-------------------------------------------------|

G|-------------------------------------------------|-------------------------------------------------|
D|-------------------------------------------------|-------------------------------------------------|
A|---------------------------------------------10--|-12--12--12--12--12--12--12--10------10----------|
E|-5---5---5---5---5---5---5---5---5---5---12------|---------------------------------12------12--10--|
B|-------------------------------------------------|-------------------------------------------------|


[Verse]

G|-------------------------------------------------|-------------------------------------------------|
D|-------------------------------------------------|-------------------------------------------------|
A|-------------------------------------------------|-4p--2-------2-------2---4---2-------2-----------|
E|-------------------------------------------------|---------4-------4---------------4-------4---0---|
B|-2-------2-----------2-2-2---2---2---2---2---2---|-------------------------------------------------|

G|-------------------------------------------------|-------------------------------------------------|
D|---------4---------------------------------------|-------------------------------------------------|
A|-------------------------------------------------|-------------------------------------------------|
E|-2-------------------2-2-2---2---2---2---2---2---|-2-------2-----------2-2-2---2---2---2---2---2---|
B|-------------------------------------------------|-------------------------------------------------|

G|-------------------------------------------------|-------------------------------------------------|
D|-------------------------------------------------|-------------------------------------------------|
A|-------------------------------------------------|-------------------------------------------------|
E|-7-------7-----------7-7-7---7---7---7---7---7---|-7-------7-----------7-7-7---7---7---7---7---7---|
B|-------------------------------------------------|-------------------------------------------------|

G|-------------------------------------------------|-------------------------------------------------|
D|-------------------------------------------------|-------------------------------------------------|
A|-------------------------------------------------|-6h7p6-------6-------6-------4-------5-----------|
E|-------------------------------------------------|---------9-------9-------7-------7-------4---2---|
B|-2-------2-----------2-2-2---2---2---2---2---2---|-------------------------------------------------|

G|-------------------------------------------------|-------------------------------------------------|
D|-------------------------------------------------|-------------------------------------------------|
A|-------------------------------------------------|-4p--2-------2-------4p--2-----------------------|
E|-------------------------------------------------|---------4-------4-----------4---2---4---2---0---|
B|-2-------2-----------2-2-2---2---2---2---2---2---|-------------------------------------------------|

G|-------------------------------------------------|-------------------------------------------------|
D|---------4---------------------------------------|-------------------------------------------------|
A|-------------------------------------------------|-------------------------------------------------|
E|-2-------------------2-2-2---2---2---2---2---2---|-2-------2-------2---2---2---2---2---2---2---2---|
B|-------------------------------------------------|-------------------------------------------------|


[Pre-Chorus]

G|-------------------------------------------------|-------------------------------------------------|
D|-------------------------------------------------|-------------------------------------------------|
A|-------------------------------------------------|-------------------------------------------------|
E|-5-------5-------5-------5-------5-------5---5---|-5-------5-------5-------5-------5-------5---5---|
B|-------------------------------------------------|-------------------------------------------------|

G|-------------------------------------------------|-------------------------------------------------|
D|-------------------------------------------------|-------------------------------------------------|
A|-------------------------------------------------|-------------------------------------------------|
E|-4-------4-------4-------4-------4-------4---4---|-4-------4-------4-------4-------4-------4---4---|
B|-------------------------------------------------|-------------------------------------------------|

G|-------------------------------------------------|-------------------------------------------------|
D|-------------------------------------------------|-------------------------------------------------|
A|-------------------------------------------------|-------------------------------------------------|
E|-3-------3-------3-------3-------3-------3---3---|-2-------2-------2-------2/----------17\---------|
B|-------------------------------------------------|-------------------------------------------------|

G|-------------------------------------------------|-------------------------------------------------|
D|-------------------------------------------------|-------------------------------------------------|
A|-------------------------------------------------|-------------------------------------------------|
E|-5---5---5---5---5---5---5---5---5---5---5---5---|-5---5---5---5---5---5---5---5---5---5---5---5---|
B|-------------------------------------------------|-------------------------------------------------|

G|-------------------------------------------------|-------------------------------------------------|
D|-------------------------------------------------|-------------------------------------------------|
A|---------------------------------------------10--|-12--12--12--12--12--12--12--10------10----------|
E|-5---5---5---5---5---5---5---5---5---5---12------|---------------------------------12------12--10--|
B|-------------------------------------------------|-------------------------------------------------|


[Verse]

G|-------------------------------------------------|-------------------------------------------------|
D|-------------------------------------------------|-------------------------------------------------|
A|-------------------------------------------------|-4p--2-------2-------2---4---2-------2-----------|
E|-------------------------------------------------|---------4-------4---------------4-------4---0---|
B|-2-------2-----------2-2-2---2---2---2---2---2---|-------------------------------------------------|

G|-------------------------------------------------|-------------------------------------------------|
D|---------4---------------------------------------|-------------------------------------------------|
A|-------------------------------------------------|-------------------------------------------------|
E|-2-------------------2-2-2---2---2---2---2---2---|-2-------2-----------2-2-2---2---2---2---2---2---|
B|-------------------------------------------------|-------------------------------------------------|

G|-------------------------------------------------|-------------------------------------------------|
D|-------------------------------------------------|-------------------------------------------------|
A|-------------------------------------------------|-------------------------------------------------|
E|-7-------7-----------7-7-7---7---7---7---7---7---|-7-------7-----------7-7-7---7---7---7---7---7---|
B|-------------------------------------------------|-------------------------------------------------|

G|-------------------------------------------------|-------------------------------------------------|
D|-------------------------------------------------|-6h7p6-------6-------6---------------------------|
A|-------------------------------------------------|---------9-------9-------9---7---6-------6-------|
E|-------------------------------------------------|-------------------------------------9-------7---|
B|-2-------2-----------2-2-2---2---2---2---2---2---|-------------------------------------------------|

G|-------------------------------------------------|-------------------------------------------------|
D|-------------------------------------------------|-------------------------------------------------|
A|-------------------------------------------------|-4p--2-------2-------4p--2-----------------------|
E|-------------------------------------------------|---------4-------4-----------4---2---4---2---0---|
B|-2-------2-----------2-2-2---2---2---2---2---2---|-------------------------------------------------|

G|-------------------------------------------------|-------------------------------------------------|
D|---------4---------------------------------------|-------------------------------------------------|
A|-------------------------------------------------|-------------------------------------------------|
E|-2-------------------2-2-2---2---2---2---2---2---|-2-------2-------2---2---2---2---2---2---3---4---|
B|-------------------------------------------------|-------------------------------------------------|


[Pre-Chorus]

G|-------------------------------------------------|-------------------------------------------------|
D|-------------------------------------------------|-------------------------------------------------|
A|-------------------------------------------------|-------------------------------------------------|
E|-5-------5-------5-------5-------5-------5---5---|-5-------5-------5-------5-------5-------5---5---|
B|-------------------------------------------------|-------------------------------------------------|

G|-------------------------------------------------|-------------------------------------------------|
D|-------------------------------------------------|-------------------------------------------------|
A|-------------------------------------------------|-------------------------------------------------|
E|-4-------4-------4-------4-------4-------4---4---|-4-------4-------4-------4-------4-------4---4---|
B|-------------------------------------------------|-------------------------------------------------|

G|-------------------------------------------------|-------------------------------------------------|
D|-------------------------------------------------|-------------------------------------------------|
A|-------------------------------------------------|-------------------------------------------------|
E|-3-------3-------3-------3-------3-------3---3---|-2-------2-------2-------2-------2---2---2---2---|
B|-------------------------------------------------|-------------------------------------------------|

G|-------------------------------------------------|-------------------------------------------------|
D|-------------------------------------------------|-------------------------------------------------|
A|-------------------------------------------------|-14--14--14--14--14--14--14--12------14----------|
E|-7-------7---7---7---7---7---7---7---7---7---7---|---------------------------------14--------------|
B|-------------------------------------------------|-------------------------------------------------|


[Chorus]

G|-------------------------------------------------|-------------------------------------------------|
D|-------------------------------------------------|-------------------------------------------------|
A|-------------------------------------------------|-------------------------------------------------|
E|-0---0---0---0---0---0---0---0---0---0---0---0---|-0---0---0---0---0---0---0---0---0---0---0---0---|
B|-------------------------------------------------|-------------------------------------------------|

G|-------------------------------------------------|-------------------------------------------------|
D|-------------------------------------------------|-------------------------------------------------|
A|-------------------------------------------------|-------------------------------------------------|
E|-11--11--11--11--11--11--11--11--11--11--11--11--|-11--11--11--11--11--11--11--11--11--11--11--11--|
B|-------------------------------------------------|-------------------------------------------------|

G|-------------------------------------------------|-------------------------------------------------|
D|-------------------------------------------------|-------------------------------------------------|
A|-------------------------------------------------|-------------------------------------------------|
E|-8---8---8---8---8---8---8---8---8---8---8---8---|-7---7---7---7---7---7---7---7---7---7---7---7---|
B|-------------------------------------------------|-------------------------------------------------|

G|-------------------------------------------------|-------------------------------------------------|
D|-------------------------------------------------|-------------------------------------------------|
A|-------------------------------------------------|-------------------------------------------------|
E|-5---5---5---5---5---5---5---5---5---5---5---5---|-5---5---5---5---3---2---0---0---0---2---2---2---|
B|-------------------------------------------------|-------------------------------------------------|

G|-------------------------------------------------|-------------------------------------------------|
D|-------------------------------------------------|-------------------------------------------------|
A|-------------------------------------------------|-------------------------------------------------|
E|-3---3---3---3---3---3---3---3---3---3---3---3---|-3---3---3---3---3---3---3---3---3---3---3---3---|
B|-------------------------------------------------|-------------------------------------------------|

G|-------------------------------------------------|-------------------------------------------------|
D|-------------------------------------------------|-------------------------------------------------|
A|-------------------------------------------------|-------------------------------------------------|
E|-7---7---7---7---7---7---7---7---7---7---7---7---|-7---7---7---7---7---7---7---7---7---7---7---7---|
B|-------------------------------------------------|-------------------------------------------------|

G|-------------------------------------------------|-------------------------------------------------|
D|-------------------------------------------------|-------------------------------------------------|
A|-------------------------------------------------|-------------------------------------------------|
E|-8---8---8---8---8---8---8---8---8---8---8---8---|-7---7---7---7---7---7---7---7---7---7---7---7---|
B|-------------------------------------------------|-------------------------------------------------|

G|-------------------------------------------------|-------------------------------------------------|
D|-------------------------------------------------|-------------------------------------------------|
A|-------------------------------------------------|-------------------------------------------------|
E|-0-------0-------0---2---3---2---0---5---3---2---|-0-------0-------0---2---3---2---0---5---3---2---|
B|-------------------------------------------------|-------------------------------------------------|


[Solo 1]

G|-------------------------------------------------|-------------------------------------------------|
D|-------------------------------------------------|-------------------------------------------------|
A|-4---4---4-------4---4---0---0---0-------0---0---|-2---2---2-------2---2---------------------------|
E|-------------------------------------------------|-------------------------0---0---0---0---0---0---|
B|-------------------------------------------------|-------------------------------------------------|

G|-------------------------------------------------|-------------------------------------------------|
D|-------------------------------------------------|-------------------------------------------------|
A|-------------------------------------------------|-0---0---0-------0---0---2---2---2---2---2---2---|
E|-2---2---2-------2---2---4---4---4-------4---4---|-------------------------------------------------|
B|-------------------------------------------------|-------------------------------------------------|

G|-------------------------------------------------|-------------------------------------------------|
D|-------------------------------------------------|-------------------------------------------------|
A|-4---4---4-------4---4---0---0---0-------0---0---|-2---2---2-------2---2---------------------------|
E|-------------------------------------------------|-------------------------0---0---0---0---0---0---|
B|-------------------------------------------------|-------------------------------------------------|

G|-------------------------------------------------|-------------------------------------------------|
D|-------------------------------------------------|-------------------------------------------------|
A|-------------------------------------------------|-0---0---0-------0---0---2---2---2---2---2---2---|
E|-2---2---2-------2---2---4---4---4-------4---4---|-------------------------------------------------|
B|-------------------------------------------------|-------------------------------------------------|

G|-------------------------------------------------|-------------------------------------------------|
D|-------------------------------------------------|-------------------------------------------------|
A|-4---4---4-------4---4---0---0---0-------0---0---|-2---2---2-------2---2---------------------------|
E|-------------------------------------------------|-------------------------0---0---0---0---0---0---|
B|-------------------------------------------------|-------------------------------------------------|

G|-------------------------------------------------|-------------------------------------------------|
D|-------------------------------------------------|-------------------------------------------------|
A|-------------------------------------------------|-0---0---0-------0---0---2---2---2---2---2---2---|
E|-2---2---2-------2---2---4---4---4-------4---4---|-------------------------------------------------|
B|-------------------------------------------------|-------------------------------------------------|

G|-------------------------------------------------|-------------------------------------------------|
D|-------------------------------------------------|-------------------------------------------------|
A|-4---4---4-------4---4---0---0---0-------0---0---|-2---2---2-------2---2---------------------------|
E|-------------------------------------------------|-------------------------0---0---0---0---0---0---|
B|-------------------------------------------------|-------------------------------------------------|

G|-------------------------------------------------|-------------------------------------------------|
D|-------------------------------------------------|-------------------------------------------------|
A|-------------------------------------------------|-0---0---0-------0---0---2---2---2---2---2---2---|
E|-2---2---2-------2---2---4---4---4-------4---4---|-------------------------------------------------|
B|-------------------------------------------------|-------------------------------------------------|


[Solo 2]

G|-------------------------------------------------|-------------------------------------------------|
D|-------------------------------------------------|-------------------------------------------------|
A|-------------------------------------------------|-------------------------------------------------|
E|-8---8---8---8---8---8---8---8---8---8---8---8---|-8---8---8---8---8---8---8---8---8---8---8---8---|
B|-------------------------------------------------|-------------------------------------------------|

G|-------------------------------------------------|-------------------------------------------------|
D|-------------------------------------------------|-------------------------------------------------|
A|-------------------------------------------------|-------------------------------------------------|
E|-7---7---7---7---7---7---7---7---7---7---7---7---|-7---7---7---7---7---7---7---7---7---7---7---7---|
B|-------------------------------------------------|-------------------------------------------------|

G|-------------------------------------------------|-------------------------------------------------|
D|-------------------------------------------------|-------------------------------------------------|
A|-------------------------------------------------|-------------------------------------------------|
E|-10--10--10--10--10--10--10--10--10--10--10--10--|-10--10--10--10--10--10--10--10--10--10--10--10--|
B|-------------------------------------------------|-------------------------------------------------|

G|-------------------------------------------------|-------------------------------------------------|
D|-------------------------------------------------|-------------------------------------------------|
A|-------------------------------------------------|-------------------------------------------------|
E|-5---5---5---5---5---5---5---5---5---5---5---5---|-5---5---5---7---7---7---8---8---8---10--10--10--|
B|-------------------------------------------------|-------------------------------------------------|

G|-------------------------------------------------|-------------------------------------------------|
D|-------------------------------------------------|-------------------------------------------------|
A|-------------------------------------------------|-------------------------------------------------|
E|-8---8---8---8---8---8---8---8---8---8---8---8---|-8---8---8---8---8---8---8---8---8---8---8---8---|
B|-------------------------------------------------|-------------------------------------------------|

G|-------------------------------------------------|-------------------------------------------------|
D|-------------------------------------------------|-------------------------------------------------|
A|-------------------------------------------------|-------------------------------------------------|
E|-7---7---7---7---7---7---7---7---7---7---7---7---|-7---7---7---7---7---7---7---7---7---7---7---7---|
B|-------------------------------------------------|-------------------------------------------------|

G|-------------------------------------------------|-------------------------------------------------|
D|-------------------------------------------------|-------------------------------------------------|
A|-------------------------------------------------|-------------------------------------------------|
E|-6---6---6---6---6---6---6---6---6---6---6---6---|-5---5---5---5---5---5---5---5---5---5---5---5---|
B|-------------------------------------------------|-------------------------------------------------|

G|-------------------------------------------------|-------------------------------------------------|
D|-------------------------------------------------|-------------------------------------------------|
A|-------------------------------------------------|-------------------------------------------------|
E|-8---8---8---8---8---8---8---8---8---8---8---8---|-8---8---8---8---8---8---8---8---8---8\----------|
B|-------------------------------------------------|-------------------------------------------------|


[Bridge]

G|-------------------------------------------------|-------------------------------------------------|
D|-------------------------------------------------|-------------------------------------------------|
A|-------------------------------------------------|-------------------------------------------------|
E|-2-------2-------2-------2-------2-------2---2---|-3-------3-------3-------4-------4-------4---4---|
B|-------------------------------------------------|-------------------------------------------------|

G|-------------------------------------------------|-------------------------------------------------|
D|-------------------------------------------------|-------------------------------------------------|
A|-------------------------------------------------|-------------------------------------------------|
E|-5-------5-------5---5---5-------5-------5---5---|-5-------5-------5---5---5-------5---5---5---5---|
B|-------------------------------------------------|-------------------------------------------------|

G|-------------------------------------------------|-------------------------------------------------|
D|-------------------------------------------------|-------------------------------------------------|
A|-------------------------------------------------|-----------------------------------------5---7---|
E|-2-------2-------2-------2-------2-------2---2---|-3-------3-------3-------4-------4---------------|
B|-------------------------------------------------|-------------------------------------------------|

G|-------------------------------------------------|-------------------------------------------------|
D|-------------------------------------------------|-7-------9-------10------9-------7---------------|
A|-8---8---8---8---8---8---8---8---8---8---8---8---|-----8-------8-------8-------8-------8---10--8---|
E|-------------------------------------------------|-------------------------------------------------|
B|-------------------------------------------------|-------------------------------------------------|

G|-------------------------------------------------|-------------------------------------------------|
D|-------------------------------------------------|-------------------------------------------------|
A|-5---5---5---5---5---5---5---5---5---5---5---5---|-5---5---5---5---5---5---5---5---5---5---5---5---|
E|-------------------------------------------------|-------------------------------------------------
B|-------------------------------------------------|-------------------------------------------------|

G|-------------------------------------------------|-------------------------------------------------|
D|-------------------------------------------------|-------------12--14--12--------------------------|
A|-------------------------------------------------|-----12--14--------------14--12------12--14--12--|
E|-7---7---7---7---7---7---7---7---7---7---7---7---|-14------------------------------14--------------|
B|-------------------------------------------------|-------------------------------------------------|


[Chorus]

G|-------------------------------------------------|-------------------------------------------------|
D|-------------------------------------------------|-------------------------------------------------|
A|-------------------------------------------------|-------------------------------------------------|
E|-0---0---0---0---0---0---0---0---0---0---0---0---|-0---0---0---0---0---0---0---0---0---0---0---0---|
B|-------------------------------------------------|-------------------------------------------------|

G|-------------------------------------------------|-------------------------------------------------|
D|-------------------------------------------------|-------------------------------------------------|
A|-------------------------------------------------|-------------------------------------------------|
E|-11--11--11--11--11--11--11--11--11--11--11--11--|-11--11--11--11--11--11--11--11--11--11--11--11--|
B|-------------------------------------------------|-------------------------------------------------|

G|-------------------------------------------------|-------------------------------------------------|
D|-------------------------------------------------|-------------------------------------------------|
A|-------------------------------------------------|-------------------------------------------------|
E|-8---8---8---8---8---8---8---8---8---8---8---8---|-7---7---7---7---7---7---7---7---7---7---7---7---|
B|-------------------------------------------------|-------------------------------------------------|

G|-------------------------------------------------|-------------------------------------------------|
D|-------------------------------------------------|-------------------------------------------------|
A|-------------------------------------------------|-12--12--12--12--12--12--7---7---7---9---9---9---|
E|-5---5---5---5---5---5---5---5---5---5---5---5---|-------------------------------------------------|
B|-------------------------------------------------|-------------------------------------------------|

G|-------------------------------------------------|-------------------------------------------------|
D|-------------------------------------------------|-------------------------------------------------|
A|-10--10--10--10--10--10--10--10--10--10--10--10--|-10--10--10--10--10--10--10--10--10--9---7-------|
E|-------------------------------------------------|---------------------------------------------10--|
B|-------------------------------------------------|-------------------------------------------------|

G|-------------------------------------------------|-------------------------------------------------|
D|-------------------------------------------------|-------------------------------------------------|
A|-------------------------------------------------|-------------------------------------------------|
E|-7---7---7---7---7---7---7---7---7---7---7---7---|-7---7---7---7---7---7---7---7---7---7---7---7---|
B|-------------------------------------------------|-------------------------------------------------|

G|-------------------------------------------------|-------------------------------------------------|
D|-------------------------------------------------|-------------------------------------------------|
A|-------------------------------------------------|-------------------------------------------------|
E|-8---8---8---8---8---8---8---8---8---8---8---8---|-7---7---7---7---7---7---7---7---7---7---7---7---|
B|-------------------------------------------------|-------------------------------------------------|

G|-------------------------------------------------|-------------------------------------------------|
D|-------------------------------------------------|-------------------------------------------------|
A|-------------------------------------------------|-------------------------------------------------|
E|-0-------0-------0---2---3---2---0---5---3---2---|-0-------0-------0---2---3---2---0---5---3---2---|
B|-------------------------------------------------|-------------------------------------------------|

G|-------------------------------------------------|-------------------------------------------------|
D|-------------------------------------------------|-------------------------------------------------|
A|-3---3---3---3---3---3---3---3---3---3---3---3---|-2---2---2---2---2---2---2---2---2---2---2---2---|
E|-------------------------------------------------|-------------------------------------------------|
B|-------------------------------------------------|-------------------------------------------------|

G|-------------------------------------------------|-------------------------------------------------|
D|-------------------------------------------------|-------------------------------------------------|
A|-------------------------------------------------|-------------------------------------------------|
E|-0-------0-------0---2---3---2---0---5---3---2---|-0-------0-------0---2---3---2---0---5---3---2---|
B|-------------------------------------------------|-------------------------------------------------|

G|-------------------------------------------------|-------------------------------------------------|
D|-------------------------------------------------|-------------------------------------------------|
A|-3---3---3---3---3---3---3---3---3---3---3---3---|-5---5---5---5---5---5---5---5---5---5---5---5---|
E|-------------------------------------------------|-------------------------------------------------|
B|-------------------------------------------------|-------------------------------------------------|

G|-------------------------------------------------|-------------------------------------------------|
D|-------------------------------------------------|-------------------------------------------------|
A|-2-----------------3-----------------5-----------|-------------7---5---7\--------------------------|
E|-------------------------------------------------|-------------------------------------------------|
B|-------------------------------------------------|-------------------------------------------------|

===============================================================================
| /  slide up
| \  slide down
| h  hammer-on
| p  pull-off
===============================================================================
Suggest correction
Creating personal tab
Creating personal tab
You can edit any tab online and save it as your Personal.

You can edit, replace or remove any tab part or add personal notes – all changes will be seen only by you.

Personal tabs can be accessed anytime from any device, even offline.
Learn more »
Give kudos to tab author, rate the tab!
1 2 3 4 5
comments
print report bad tab
guest
You may want to rate the tab now too:
select rating
Wanna post a correction for this tab? Suggest correction