Oops, an error
Loading. Please wait.

Rebirth tab

version 1
version 1

Whole song

by Angra
27,779 views 36 this week
no commentswrite comment
1 2 3 4 5
x 7
add to favorites
×
Save as Personal and add changes to this tab that will be seen only by you. Learn more ›
×
You can save this tab as Personal to edit and correct it or add notes. All changes will be seen only by you. Learn more »
launch autoscroll
font size
0
reset
how to read this tab
guitar tuner
backing track
0:00
0:00
edit
Autoscroll
slow
fast
+/-
esc
set tempo
stop
Author
Unregistered
[Chords]
     Am     Dm/A   Am/G    E    Dm     G    G/B    C     F  
e|--0---|--1---|--0---|--0--|--1--|--x--|--3--|--0--|--x--|
B|--1---|--3---|--1---|--0--|--3--|--3--|--3--|--1--|--1--|
G|--2---|--2---|--2---|--1--|--2--|--4--|--0--|--0--|--2--|
D|--2---|--0---|--2---|--2--|--0--|--5--|--0--|--2--|--3--|
A|--0---|--0---|--0---|--2--|--x--|--5--|--2--|--3--|--3--|
E|--x---|--x---|--3---|--0--|--x--|--3--|--x--|--x--|--1--|

    F5    F#5    C#5     D5   D#5    B5    E5  F7/9-     
e|--x---|--x---|--x---|--x--|--x--|--x--|--x--|--x--|
B|--x---|--x---|--x---|--x--|--x--|--x--|--x--|--6--|
G|--x---|--x---|--6---|--7--|--8--|--4--|--x--|--7--|
D|--3---|--4---|--6---|--7--|--8--|--4--|--2--|--6--|
A|--3---|--4---|--4---|--5--|--6--|--2--|--2--|--7--|
E|--1---|--2---|--x---|--x--|--x--|--x--|--0--|--x--|

[Intro]
(t=145)
    Am          F#      Am7/G      Em      F          G       Am
e|--------0----------|------------------|------------------|---------0--------| 
B|------1---3--------|-------1-0--------|------------------|-------1-----1----|
G|*---2------------2-|-----0------------|-------2-0--------|-----2-----2---2-*| 
D|*--------------0---|---2------------2-|-----3----------5-|---2-------------*| 
A|--0----------------|--------------2---|---3----------5---|-0----------------|
E|-------------2-----|-3----------0-----|-1----------3-----|------------------| 

   Dm                                   C                 Am
e|-------1-----0---|-------0------1---|-0---------------|-------------0---|
B|-----3-----3-----|-3-------3--------|-------3-----1---|-1-----1---------|
G|---2-----2-----2-|---3-------3----3-|---0-----0-----0-|---2-----2-----2-|   
D|-0---------0-----|-----0------------|-----2-----2-----|-----2-----2-----|       
A|-----------------|------------------|-3---------------|-0---------------|
E|-----------------|------------------|-----------------|-----------------|

   Dm                                    C                 G/B
e|-1-----------0---|--------0------1---|-0---------------|-------3----|
B|---3---3---------|-3--------3--------|-------3-----1---|-----3------|
G|-----2---2-----2-|---3--------3----3-|---0-----0-----0-|---0--------|  
D|-0---------0-----|-----0-------------|-----2-----2-----|------------|       
A|-----------------|-------------------|-3---------------|-2----------|
E|-----------------|-------------------|-----------------|------------|

[Lyric part]
     A7/9                                Dm7/9
e|--------3-0---3---|-------3-0---3---|---------5-------|---------5-------|
B|------1-----1---1-|-----1-----1---1-|-------6-----6---|-------6-----6---|
G|*---4-------------|---4-------------|-----9-----9---9-|-----9-----9---9-|
D|*-----------------|-----------------|---7-------------|---7-------------|
A|--0---------------|-0---------------|-5---------------|-5---------------|
E|------------------|-----------------|-----------------|-----------------|
          1. Cooling   breeze   from   a   summer   day . . .
          2. Joyfull  sea-gulls  roaming  on  the  shore. . .

   G/9                                 C9                E7
e|---------3-------|---------3-------|---------0-------|-----------0-----|
B|-------0-----0---|-------0-----0---|-------3-----3---|-------3-----3---|
G|-----2-----2---2-|-----2-----2---2-|-----0-----0---0-|-----1---------1-|
D|---0-------------|---0-------------|---2-------------|---2-----2-------|
A|-----------------|-----------------|-3---------------|-------2---------|
E|-3---------------|-3---------------|-----------------|-0---------------|
         1. Hearing   echoes   from   your   heart . . . 
         2. Not  a   single   note   will   sound . . .

   A7/9                                D
e|-------3-0---3---|-------3-0---3---|---------0-------|---------0-------|
B|-----1-----1---1-|-----1-----1---1-|-------7-----7---|-------7-----7---|
G|---4-------------|---4-------------|-----7-----7---7-|-----7-----7---7-|
D|-----------------|-----------------|---7-------------|---7-------------|
A|-0---------------|-0---------------|-5---------------|-5---------------|
E|-----------------|-----------------|-----------------|-----------------|
           1. Learning   how   to   recompose  the  words . . .
           2. Raise   my   head   after I  dry  my  face . . .

   F                                   Am9
e|-----------------|-----------------|---------0-------|---------0--------|
B|-------6-5---6---|-------6-5---6---|-------0-----0---|-------0-----0----|
G|-----5-----5---5-|-----5-----5---5-|-----5-----5---5-|-----5-----5---5-*|
D|---7-------------|---7-------------|---7-------------|---7-------------*|
A|-8---------------|-8---------------|-0---------------|-0----------------|
E|-----------------|-----------------|-----------------|------------------|
           1. Let  time  just  fly . . .
           2. Let  time  just  fly . . .

   Am               Dm/A             Am               E
e|-----------------|---------------|-----------------|-------------------| 
B|-----1---1---0---|----3---3---1--|-----1---1---0---|----0---0----------| 
G|---2---2---2---2-|--2---2---2---2|---2---2---2---2-|--1---1---1-2-1----| 
D|-----------------|---------------|-----------------|-------------------| 
A|-0---------------|0--------------|-0---------------|-------------------| 
E|-----------------|---------------|-----------------|0------------------| 
   1. Recalling,      retreating,      returning,        retreaving . . .

   Am                Dm/A            Am               E                  F5   G5
e|-----------------|---------------|-----------------|-------------------| 
B|-----1---1---0---|----3---3---1--|-----1---1---0---|----0---0----------| 
G|---2---2---2---2-|--2---2---2---2|---2---2---2---2-|--1---1---1-2-1----| 
D|-----------------|---------------|-----------------|-------------------| 
A|-0---------------|0--------------|-0---------------|-------------------| 
E|-----------------|---------------|-----------------|0------------------| 
   1. A small talk   your missing      more clever       but  older      now . . .  

Am          Dm/A
   A leader, a learner
Am/G       E 
   A lawful beginer
Am         Dm           
   A lodger of lunacy
G          G/B
   So lucid in a jungle
C           E
   A helper, a sinner
F                 G          Am     G
   A scarecroow's agonyzing smile
F5             F#5
Oh! Minutes go round and round
          C#5
Inside my head
D5                D#5
Oh! My chest will now explode 
             B5
Falling into pieces                 (2x)
E5                        A5     (C#5 B5)   E5  F7/9  E5  F7/9- 
Rain breaks on the ground-blood!
C#5  B5 C#5  C#5 B5 C#5   E5  F7/9  E5  F7/9 
 One minute  forever
C#5 B5  C#5 C#5 B5  C#5   E5  F7/9  E5  F7/9
 A  sinner  regreting
Am                G      F    G A    G
 My vulgar misery ends
F                 G A               G
Ride the winds of a brand new day
F                  G   A      G
High where mountain's stand
F             E   Dm           G/B
Found my hope and pride again                           
  C         Dm  E    
Rebirth of  a   man

[Bass guitar with acoustic]
     Am         F#      Am7/G      Em      F       G          Am
e|--------0----------|------------------|------------------|---------0--------| 
B|------1---3--------|-------1-0--------|------------------|-------1-----1----|
G|*---2------------2-|-----0------------|-------2-------4--|-----2-----2---2-*| 
D|*--------------0---|---2------------2-|-----3-------5----|---2-------------*| 
A|--0----------------|--------------2---|---3-------5------|-0----------------|
E|-------------2-----|-3----------0-----|-1-------3--------|------------------|
 
e|-------------------|------------------|------------------|------------------| 
B|-------------------|------------------|------------------|------------------|
G|*------------------|------------------|------------------|-----------------*| 
D|*-7(7)--------4----|-5(5)--------2----|-3(3)----5(5)-----|-7(7)------------*| 
A|--7(7)--------4----|-5(5)--------2----|-3(3)----5(5)-----|-7(7)-------------|
E|--5(5)--------2----|-3(3)--------0----|-1(1)----3(3)-----|-5(5)-------------| 
 
[Solo]
e|------------------------|
B|--10r-----10b--------10-|
G|------------------------|
D|------------------------|
A|------------------------|
E|------------------------|

e|-----------12-14-15-14-12----------17b-------|------19-17-19--------17b-|
B|--12-14-15----------------15-14-12-----------|--------------------------|
G|---------------------------------------------|--------------------------|
D|---------------------------------------------|--------------------------|
A|---------------------------------------------|--------------------------|
E|---------------------------------------------|--------------------------|

e|--------14h15p14-------14-------------|------------------------------|
B|-----------------17p15----17p14-15p14-|--------14--------------------|
G|--------------------------------------|--16p14----14-16----------16~-|
D|--------------------------------------|------------------------------|
A|--------------------------------------|------------------------------|
E|--------------------------------------|------------------------------|
                                                   
e|--19----17-19-17----------------------------------|
B|--------------------19----17-19-17----------------|
G|-----16----------16----16----------16-19-16-18-19/|
D|--------------------------------------------------|
A|--------------------------------------------------|
E|--------------------------------------------------|
                                                                             
e|------------------------------|------------------------------------------------|
B|------------------------------|------------------------------------------------|
G|--18------19-18-16------------|------------------------------------------------|
D|------------------------------|--12-16-------12-16-12-16-16-17-16-12-16--12-16-|
A|------------------------12-14-|--------12-14-----------------------------------|
E|------------------------------|------------------------------------------------|

e|--------------------------------------------------|
B|--------------12-------14p10----15p12-14p12-------|
G|--12h14p12-------14p12-------12-------------14-13-|
D|-----------16-------------------------------------|
A|--------------------------------------------------|
E|--------------------------------------------------|
                                                                              
e|-------------------------------------12-11-10-9-|--12b-----12p10---------14-14-|
B|--15-14-13-12-------------12-11-10-8------------|----------------12------------|
G|--------------14-13-12-11-----------------------|------------------------------|
D|------------------------------------------------|------------------------------|
A|------------------------------------------------|------------------------------|
E|------------------------------------------------|------------------------------|
                                                                        
e|--14/10-10-10-10/12-12-12-12/7-7-7-7/10-10--|--9----9h10p9p7-9~-----0-10-|
B|--------------------------------------------|----------------------------|
G|--------------------------------------------|----------------------------|
D|--------------------------------------------|----------------------------|
A|--------------------------------------------|----------------------------|
E|--------------------------------------------|----------------------------|

e|--14-15-14-10-14p10-------------------------------|
B|--------------------14-15-14-10-14p10-------------|
G|--------------------------------------14-16-14-11-|
D|--------------------------------------------------|
A|--------------------------------------------------|
E|--------------------------------------------------|
                                               
e|----------------------------------------------|
B|----------------------------------------------|
G|--12------11-12-12-11-------------------------|
D|----------------------14-12-11----------------|
A|-------------------------------14-12-10-14/---|
E|----------------------------------------------|

(Begin the Acoustic fill)
e|--------------------------17--19--21--22--21--22--|--24~-----------------|
B|----------------------17--------------------------|------------------15b-|
G|----------16--18--19------------------------------|----------------------|
D|------16------------------------------------------|----------------------|
A|--17----------------------------------------------|----------------------|
E|--------------------------------------------------|----------------------|
                                                 
e|--------------------|--------------------------|------------------17------|
B|--15b---------------|--15b-------15r-----15-13-|--------------17------17--|
G|--------------------|--15b---------------------|--14~---------------------|
D|--------------------|--------------------------|--------------------------|
A|--------------------|--------------------------|--------------------------|
E|--------------------|--------------------------|--------------------------|
                                                       
e|--19b-------19b-----19-17-|--17--19--19--15--15~-------|
B|--------------------------|----------------------------|
G|--------------------------|----------------------------|
D|--------------------------|----------------------------|
A|--------------------------|----------------------------|
E|--------------------------|----------------------------|
                                                                 
e|--20--19h20h19-17------17--------------|--------------------12--|
B|-------------------20------20r---20h17-|--20b-----------15------|
G|---------------------------------------|------------------------|
D|---------------------------------------|------------------------|
A|---------------------------------------|------------------------|
E|---------------------------------------|------------------------|
                                                        
e|--12h13h12---------------------------------------------|
B|-----------15h13-12----------------13------------------|
G|--------------------14-12-10-14-12----12-14-12-10h9h10-|
D|-------------------------------------------------------|
A|-------------------------------------------------------|
E|-------------------------------------------------------|

e|-------------------------------------|-----------------------------|
B|-------------------------------------|-----------------------------|
G|--12-9-----12-9----------------------|----12--12--10--10--9--9--7--|
D|-------10-------10--5h7h5h7h5h7-6----|-----------------------------|
A|-------------------------------------|-----------------------------|
E|-------------------------------------|-----------------------------| 
                                                  
e|--------------12--------|--------------------------|
B|------------------------|--13b-----15------13--10--|
G|--7--9--9--5------------|--------------------------|
D|------------------------|--------------------------|
A|------------------------|--------------------------|
E|------------------------|--------------------------|
                                                         
e|----------------------------|---------------------------|
B|----------------------------|---------------------------|
G|--12--10h9h10h9--8----------|--7h-9h7-5--4--5--4--------|
D|----------------------------|---------------------5-----|
A|----------------------------|------------------------7--|
E|----------------------------|---------------------------|

e|-----------------------|--------------------------|------------------------|
B|-----------------------|--------------------------|-----------------3------|
G|-----------------------|--------------------------|-----------------0------|
D|-----------------------|--2--2--2--2--2--2--2--2--|--2--2--2--2--2--0------|
A|--5--7--5--2-----------|--0--0--0--0--0--0--0--0--|--0--0--0--0--0---------|
E|--------------3~-------|--------------------------|-----------------3------|

e|-------------------|
B|-------------------|
G|-------------------|
D|-------------------|
A|--3----------------|
E|--1----------------|

[Acoustic fill]
e|-----------0--------------|--------------------------|
B|--------1-----3-----------|-----------1--0-----------|
G|-----2-----------------2--|--------0-----------------|
D|--------------------0-----|-----2-----------------2--|
A|--0-----------------------|--------------------2-----|
E|-----------------2--------|--3--------------0--------|
                                                    
e|--------------------------|--------------0-----------|
B|--------------------------|-----------1--------1-----|
G|-----------2--0--------0--|--------2--------2-----2--|
D|--------3-----------0-----|-----2--------------------|
A|-----3--------------------|--0-----------------------|
E|--1--------------2--------|--------------------------|
                                                    
e|-----------0--------------|--------------------------|
B|--------1-----3-----------|-----------1--0-----------|
G|-----2-----------------2--|--------0-----------------|
D|--------------------0-----|-----2-----------------2--|
A|--0-----------------------|--------------------2-----|
E|-----------------2--------|--3--------------0--------|
                                                      
e|--------------------------|--------------0-----------|
B|--------------------------|-----------1--------1-----|
G|-----------2--0--------0--|--------2--------2-----2--|
D|--------3-----------0-----|-----2--------------------|
A|-----3--------------------|--0-----------------------|
E|--1--------------2--------|--------------------------|
                                                     
e|--------------------------|--------------------------|
B|-----------6--------5-----|-----------3--------5--6--|
G|--------7-----7--------7--|--------3-----3-----------|
D|-----7-----------7--------|-----3-----------3--------|
A|--5-----------------------|--5-----------------------|
E|--------------------------|--------------------------|
                                                      
e|--------------------------|--------------------------|
B|--5-----------5-----------|--------------------------|
G|-----5-----5-----5-----5--|--------5-----------5-----|
D|--------5-----------5-----|-----7-----7-----7-----7--|
A|--------------------------|--8-----------7-----------|
E|--------------------------|--------------------------|
                                                      
e|--------------------------|--------------------------|
B|--------------6-----------|-----------3-----3--5--6--|
G|--------7--------7-----7--|--------3-----3-----------|
D|-----7-----7--------7-----|-----3--------------------|
A|--5-----------------------|--5-----------------------|
E|--------------------------|--------------------------|
                                                                             
e|--------------------------|--------------3-----------|----------------------|
B|--5-----------5-----------|--------3--------3-----3--|--10b-------12b-------|
G|-----5-----------5-----5--|-----0-----0--------0-----|--12b-------14b-------|
D|--------5-----------5-----|--------------------------|----------------------|
A|-----------3--------------|--2-----------------------|----------------------|
E|--------------------------|--------------------------|----------------------|
                                             
e|------------15b-------|--17b---------------|
B|--13b-------18b-------|--10b---------------|
G|--16b-----------------|--------------------|
D|----------------------|--------------------|
A|----------------------|--------------------|
E|----------------------|--------------------|

Am      G  F                 G Am              G
   (And I) Ride the winds of a brand new day
F                  G   Am     G
High where mountain's stand
F             E   Dm 
Found my hope and pride again
  C         Dm  E    
Rebirth of  a   man

 Am            F#      Am7/G      Em      F         G        Am
e|--------0----------|------------------|------------------|---------0--------| 
B|------1---3--------|-------1-0--------|------------------|-------1-----1----|
G|----2------------2-|-----0------------|-------2-0--------|-----2-----2---2--|
D|---------------0---|---2------------2-|-----3----------5-|---2--------------| 
A|--0----------------|--------------2---|---3----------5---|-0----------------|
E|-------------2-----|-3----------0-----|-1----------3-----|------------------| 

    Am         F#     Am7/G      Em       F        G         Am
e|--------0----------|-------------------|--------|---------|--------<12>-----| 
B|------1---3--------|-------1-0---------|--------|0------0-|----2-0----------|
G|----2------------2-|-----0-------------|------2-|4--------|-----------------| 
D|---------------0---|---2------------2--|----3---|----5----|--2--------------| 
A|--0----------------|--------------2----|--3-----|--5------|0----------------|
E|-------------2-----|-3----------0------|1-------|3--------|-----------------| 
                                          Time     to        fly...


************************************

| x    Dead note
| *    Natural harmonic
| .    Staccato
| (n)  Ghost note
| r    Release
| b    Bend
| h    Hammer-on
| p    Pull-off
| ~    Vibrato
| /    Slide up

************************************

            
            
Suggest correction
Creating personal tab
Creating personal tab
You can edit any tab online and save it as your Personal.

You can edit, replace or remove any tab part or add personal notes – all changes will be seen only by you.

Personal tabs can be accessed anytime from any device, even offline.
Learn more »
comments
print report bad tab
guest
Wanna post a correction for this tab? Suggest correction