Oops, an error
Loading. Please wait.

Rebirth tab

version 2
version 2

Whole song

by Angra
2,635 views 1 this week
no commentswrite comment
1 2 3 4 5
2 more votes to show rating
add to favorites
×
Save as Personal and add changes to this tab that will be seen only by you. Learn more ›
×
You can save this tab as Personal to edit and correct it or add notes. All changes will be seen only by you. Learn more »
launch autoscroll
font size
0
reset
how to read this tab
guitar tuner
backing track
0:00
0:00
edit
Autoscroll
slow
fast
+/-
esc
set tempo
stop
#----------------------------------PLEASE NOTE---------------------------------#
#This file is the author's own work and represents their interpretation of the #
#song. You may only use this file for private study, scholarship, or research. #
#------------------------------------------------------------------------------#

REBIRTH
As recorded by Angra
(From the 2001 Album REBIRTH)

Transcribed by Fabiano Rodrigues
        

Words by Bittencourt Music by Loureiro and Bittencourt
Arranged by LCR

Gtr I (E A D G B E) - 'Clean (Rafael)'
Gtr II (E A D G B E) - 'Clean (Kiko)'
Gtr III (E A D G B E) - 'Distortion (Rafael)'
Gtr IV (E A D G B E) - 'Distortion (Kiko)'
Gtr V (E A D G B E) - 'Overdub (Rafael)'

   Intro (0:00)
    Q=145
    Am        D/F#    G         Em      F         G       Am
   4/4
    Gtr I
    E E E E E E E E   E E E E E E E E   E E E E E E E E   E E E E E E E E
||--------0---------|-----------------|-----------------|---------0--------||
||o-----1---3-------|-------1-0-------|-----------------|-------1-----1---o||
||----2-----------2-|-----0---------0-|-------2-0-------|-----2-----2---2--||
||--------------0---|---0---------2---|-----3---------0-|---2--------------||
||o-0---------------|-----------------|---3---------0---|-0---------------o||
||------------2-----|-3---------0-----|-1---------3-----|------------------||


  Dm                Bb/D              C                 Am
  E E E E E E E E   E E E E E E E E   E E E E E E E E   E E E E E E E E
|-------1-----0---|-------0-----1---|-0---------------|-------------0---|
|-----3---3-------|-3-------3-------|---1---3-----1---|-1-----1---------|
|---2-------2---2-|---3-------3---2-|-----0---0-----0-|---2-----2-----2-|
|-0---------------|-----0-----------|-----------------|-----2-----2-----|
|-----------------|-----------------|-3---------3-----|-0---------------|
|-----------------|-----------------|-----------------|-----------------|


  Dm                Bb/D              C                 G/B
  E E E E E E E E   E E E E E E E E   E E E E E E E E   E E E E +H
|-1-----------0---|-------0-----1---|-0---------------|-------3-(3)----|
|---3---3---------|-3-------3-------|---1---3-----1---|-----3----------|
|-----2---2-------|---3-------3---3-|-----0---0-------|---0------------|
|-0---------0---0-|-----0-----------|-----------------|----------------|
|-----------------|-----------------|-3---------3---3-|-2--------------|
|-----------------|-----------------|-----------------|----------------|


   Pre-Verse (0:26)
    Am7add9                             Dm9
    E E E E E E E E   E E E E E E E E   E E E E E E E E
||----------0-------|---------0-------|---------5-------|
||o-------8-----8---|-------8-----8---|-------6-----6---|
||------5-----5---5-|-----5-----5---5-|-----9-----9---9-|
||----9-------------|---9-------------|---7-------------|
||o-0---------------|-0---------------|-5---------------|
||------------------|-----------------|-----------------|


                    G9
  E E E E E E E E   E E E E E E E E   E E E E E E E E
|---------5-------|---------3-------|---------3-------|
|-------6-----6---|-------0-----0---|-------0-----0---|
|-----9-----9---9-|-----2-----2---2-|-----2-----2---2-|
|---7-------------|---0-------------|---0-------------|
|-5---------------|-----------------|-----------------|
|-----------------|-3---------------|-3---------------|


  C                 E                 Am7add9
  E E E E E E E E   E E E E E E E E   E E E E E E E E
|---------0-------|-----------0-----|---------0-------|
|-------3-----3---|-------3-------3-|-------8-----8---|
|-----0-----0---0-|-----1---1---1---|-----5-----5---5-|
|---2-------------|---2-------------|---9-------------|
|-3---------------|-----------------|-0---------------|
|-----------------|-0---------------|-----------------|


                    D9
  E E E E E E E E   E E E E E E E E   E E E E E E E E
|---------0-------|---------0-------|---------0-------|
|-------8-----8---|-------7-----7---|-------7-----7---|
|-----5-----5---5-|-----7-----7---7-|-----7-----7---7-|
|---9-------------|---7-------------|---7-------------|
|-0---------------|-5---------------|-5---------------|
|-----------------|-----------------|-----------------|


                                     1.
  Fmaj7                               Am9
  E E E E E E E E   E E E E E E E E   E E E E E E E E
|---------0-------|---------0-------|---------0-------|
|-------6-----6---|-------6-----6---|-------0-----0---|
|-----5-----5---5-|-----5-----5---5-|-----5-----5---5-|
|---7-------------|---7-------------|---7-------------|
|-8---------------|-8---------------|-0---------------|
|-----------------|-----------------|-----------------|


                     2.
                      Am9
  E E E E E E E E     E E E E E E E E   E E E E E E E E
|---------0--------||---------0-------|---------0-------|
|-------0-----0---o||-------0-----0---|-------0-----0---|
|-----5-----5---5--||-----5-----5---5-|-----5-----5---0-|
|---7--------------||---7-------------|---7-------------|
|-0---------------o||-0---------------|-0---------------|
|------------------||-----------------|-----------------|


   Verse (1:19)
    Am                Dm6/A             Am                E
    E E E E E E E E   E E E E E E E E   E E E E E E E E   E E E E E E E E
||------------------|-----------------|-----------------|-------------------||
||o-----5---5---3---|-----6---6---5---|-----5---5---3---|-----0---0---1----o||
||------5---5---4---|-----7---7---5---|-----5---5---4---|-----1---1---2-----||
||----7---7---7---5-|---9---9---9---7-|---7---7---7---5-|---2---2---2---2---||
||o-0---------------|-0---------------|-0---------------|------------------o||
||------------------|-----------------|-----------------|-0-----------------||


 Pre-Chorus (1:32)
  F                                    Am
  Gtr I
  E E E E E E E E   E E E E E E  E E   W
|-----------0-----|--------------1---|------------------|
|-------0---------|-0---------0------|-0----------------|
|-----2---2---2---|---------2------2-|------------------|
|---3-----------3-|---3---3----------|------------------|
|-----------------|-----3------------|------------------|
|-1---------------|------------------|------------------|
|
| Gtrs IV, V
| <
| E E E E E E E E   E E E E E Q.       E E  E E  E E Q
|-----------------|------------------|------------------|
|-----------------|------------------|------------------|
|-----------------|------------------|------9----9---7--|
|-----------------|------------------|-----10---10---9--|
|-3-3-3-3-3-3-3-3-|-3-3-3-3-3-5------|-0-0----0----0----|
|-1-1-1-1-1-1-1-1-|-1-1-1-1-1-3------|------------------|


  Dm/A                C/G         G    E
  Gtrs III, IV
  E E  E E  E E  Q    E E E E E E Q    E E E E E E Q
|-------------------|----------------|----------------|
|-------------------|-----5---5---3--|----------------|
|-----10---10----9--|-----5---5---4--|-----4---4---5--|
|-----12---12---10--|----------------|-----6---6---7--|
|-0-0----0----0-----|----------------|----------------|
|-------------------|-3-3---3---3----|-0-0---0---0----|


  Am                 A7                  Dm
  E E  E E  E E Q    E E  E E  E E  Q    E E E E E E Q
|------------------|-------------------|----------------|
|------------------|-------------------|-----6---6---5--|
|------9----9---7--|-----12---12---10--|-----7---7---5--|
|-----10---10---9--|-----11---11---12--|----------------|
|-0-0----0----0----|-0-0----0----0-----|-5-5---5---5----|
|------------------|-------------------|----------------|


  G       C/G      C5              E5
  E E E E E E Q    E E E E Q  Q    E E E E Q  Q
|----------------|---------------|---------------|
|----------------|---------------|---------------|
|-----4---4---5--|---------------|---------------|
|-----5---5---5--|-----5---5--5--|-----9---9--9--|
|----------------|-3-3-3-3-3--3--|-----7---7--7--|
|-3-3---3---3----|---------------|-0-0---0-------|


  F5              G5              Am
  E E E E Q  Q    E E E E Q  Q    W          +W
|---------------|---------------|----------|--------|
|---------------|---------------|----------|--------|
|---------------|---------------|-2--------|-(2)----|
|-----3---3--3--|-----5---5--5--|-2--------|-(2)----|
|-----3---3--3--|-----5---5--5--|-0--------|-(0)----|
|-1-1---1-------|-3-3---3-------|----------|--------|


 Chorus (1:58)
  F5                            F#5
  E S S E E H      +W           E S S E E H      +W
|----------------|------------|----------------|--------|
|----------------|------------|----------------|--------|
|----------------|------------|----------------|--------|
|----------------|------------|----------------|--------|
|-3---------3----|-(3)--------|-4---------4----|-(4)----|
|-1-1-1-1-1-1----|-(1)--------|-2-2-2-2-2-2----|-(2)----|


  C#5
  E S S E E H      +H     S S S S S S S S
|----------------|------------------------|
|----------------|------------------------|
|----------------|------------------------|
|-6---------6----|-(6)--------------------|
|-4-4-4-4-4-4----|-(4)----4-4-4-4-4-4-4-4-|
|----------------|------------------------|


  D5
  E S S E E H      +H     S S S S S S S S
|----------------|--------------------------|
|----------------|--------------------------|
|----------------|--------------------------|
|-7---------7----|-(7)----------------------|
|-5-5-5-5-5-5----|-(5)----5-5-5-5-5-5-5-5---|
|----------------|--------------------------|


  Eb5                                       B5
  E S S E E H      +H     S S S S S S S S   Q  E E Q  E E   Q  E E Q  E E
|----------------|------------------------|---------------|----------------|
|----------------|------------------------|---------------|----------------|
|----------------|------------------------|---------------|----------------|
|-8---------8----|-(8)--------------------|-4------4------|-4------4-------|
|-6-6-6-6-6-6----|-(6)----6-6-6-6-6-6-6-6-|-2--2-2-2--2-2-|-2--2-2-2--2-2--|
|----------------|------------------------|---------------|----------------|


  E5                              A5
  Q  E E Q  E E   Q  E E Q  E E   Q  E E Q  E E   Q  E E H
|---------------|---------------|---------------|-------------|
|---------------|---------------|---------------|-------------|
|---------------|---------------|---------------|-------------|
|---------------|---------------|-2------2------|-2------2----|
|-2------2------|-2------2------|-0--0-0-0--0-0-|-0--0-0-0----|
|-0--0-0-0--0-0-|-0--0-0-0--0-0-|---------------|-------------|


   Breakdown (2:23)
    C#m                             E             E7b9   E             E7b9
    E E E E Q  Q    E E E E Q  Q    E S S S S S S H      E S S S S S S H
||----------------|---------------|--------------------|---------------------||
||o---------------|---------------|---------------6----|---------------6----o||
||------6---4--6--|-----6---4--6--|---------------7----|---------------7-----||
||------6---4--6--|-----6---4--6--|---------------6----|---------------6-----||
||o-4-4---4-------|-4-4---4-------|---------------7----|---------------7----o||
||----------------|---------------|-0-0-0-0-0-0-0------|-0-0-0-0-0-0-0-------||


  C#m                             E             E7b9   E             E7b9
  E E E E Q  Q    E E E E Q  Q    E S S S S S S H      E S S S S S S H
|---------------|---------------|--------------------|--------------------|
|---------------|---------------|---------------6----|---------------6----|
|-----6---4--6--|-----6---4--6--|---------------7----|---------------7----|
|-----6---4--6--|-----6---4--6--|---------------6----|---------------6----|
|-4-4---4-------|-4-4---4-------|---------------7----|---------------7----|
|---------------|---------------|-0-0-0-0-0-0-0------|-0-0-0-0-0-0-0------|


  Am                              G
  E E E E Q  Q    E E E E Q  Q    E S S S S S S H      E S S S S S S H
|---------------|---------------|--------------------|--------------------|
|---------------|---------------|--------------------|--------------------|
|---------------|---------------|--------------------|--------------------|
|-----7---5--7--|-----7---5--7--|---------------5----|---------------5----|
|-----7---5--7--|-----7---5--7--|---------------5----|---------------5----|
|-5-5---5-------|-5-5---5-------|-3-3-3-3-3-3-3------|-3-3-3-3-3-3-3------|


 Out-Chorus (2:49)
  F                     G        Am                    G
  W          +H     +E  E +Q     W          +H     +E  E +Q
|----------|-------------------|----------|-------------------|
|----------|------------3-(3)--|----------|------------3-(3)--|
|----------|------------0-(0)--|-2--------|-(2)----(2)-0-(0)--|
|-3--------|-(3)----(3)-0-(0)--|-2--------|-(2)----(2)-0-(0)--|
|-3--------|-(3)----(3)--------|-0--------|-(0)----(0)--------|
|-1--------|-(1)----(1)-3-(3)--|----------|------------3-(3)--|


  F                     G        Am                    G
  W          +H     +E  E +Q     W          +H     +E  E +Q
|----------|-------------------|----------|-------------------|
|----------|------------3-(3)--|----------|------------3-(3)--|
|----------|------------0-(0)--|-2--------|-(2)----(2)-0-(0)--|
|-3--------|-(3)----(3)-0-(0)--|-2--------|-(2)----(2)-0-(0)--|
|-3--------|-(3)----(3)--------|-0--------|-(0)----(0)--------|
|-1--------|-(1)----(1)-3-(3)--|----------|------------3-(3)--|


  F                              Dm
  W          +H     +E  E +Q     W          +H     +E  E +Q
|----------|-------------------|----------|-------------------|
|----------|-------------------|-3--------|-(3)----(3)-3-(3)--|
|----------|-------------------|-2--------|-(2)----(2)-2-(2)--|
|----------|-------------------|-0--------|-(0)----(0)-0-(0)--|
|-3--------|-(3)----(3)--------|----------|-------------------|
|-1--------|-(1)----(1)-0-(0)--|----------|-------------------|


  C                     Dm       E
  W          +H     +E  E +Q     W          +W
|----------|-------------------|-0--------|-(0)----|
|----------|------------3-(3)--|-0--------|-(0)----|
|-5--------|-(5)----(5)-2-(2)--|----------|--------|
|-5--------|-(5)----(5)-0-(0)--|-2--------|-(2)----|
|-3--------|-(3)----(3)--------|-2--------|-(2)----|
|----------|-------------------|-0--------|-(0)----|


   Interlude (3:21)
    Am          D/F#      G           Em
    Gtr I
    E E E E  E  E  E  E   E E E E  E  E  E  E
||--------0-------------|---------------------|
||o-----1----3----------|-------1--0----------|
||----2---------------2-|-----0-------------0-|
||-----------------0----|---0------------2----|
||o-0-------------------|---------------------|
||--------------2-------|-3-----------0-------|
|
|   Gtr IV
|   H       +E  E +Q      H       +E  E +Q
||----------------------|---------------------|
||o---------------------|-3-------(3)---------|
||--------------2-(2)---|-0-------(0)---------|
||--2-------(2)-0-(0)---|-0-------(0)---------|
||o-0-------(0)---------|-------------2-(2)---|
||--------------2-(2)---|-3-------(3)-0-(0)---|


  F           G         Am
  E E E E  E  E  E  E   E E E E E E E E
|---------------------|---------0---------||
|---------------------|-------1-----1----o||
|-------2--0--------0-|-----2-----2---2---||
|-----3----------0----|---2---------------||
|---3-----------------|-0----------------o||
|-1-----------3-------|-------------------||
|
| H       +E  E +Q      W
|---------------------|-------------------||
|-------------3-(3)---|------------------o||
|-------------0-(0)---|-------------------||
|-------------0-(0)---|-2-----------------||
|-3-------(3)---------|-0----------------o||
|-1-------(1)-3-(3)---|-------------------||


 Kiko (3:33)
  Q=150
  Bm
  Gtr III
   S     S S   S  S   S      S  S S   S  S   S   S S S  S
|---------------------------------------------------------|
|---------------------------------------------------------|
|---------------------------------------------------------|
|---------------------------------------------------------|
|---------------------------------------------------------|
|--7-----7-7---7--7---7------7--7-7---7--7---7---7-7-7--7-|
|
| Gtr IV
|  E.         +E     +E         E    +E     +Q          S
|---------------------------------------------------------|
|-10b12======(10)r==(10)b12====10---(10)---(10)r-------10-|
|---------------------------------------------------------|
|---------------------------------------------------------|
|---------------------------------------------------------|
|---------------------------------------------------------|


  G                                          D/F#
   S    S    S    S     S    S     S    S     S     S S S S S S S
|-----------------------------------------------------------------|
|-----------------------------------------------------------------|
|-----------------------------------------------------------------|
|-----------------------------------------------------------------|
|-----------------------------------------------------------------|
|--3----3----3----3-----3----3-----3----3-----2-----2-2-2-2-2-2-2-|
|
|  |--------5--------|  |--------6---------|
|  S  S    S    S    S  S  S    S  S  S    S  H
|--------------12---14-15-14---12------------17b19================|
|-12-14---15----------------------15-14---12----------------------|
|-----------------------------------------------------------------|
|-----------------------------------------------------------------|
|-----------------------------------------------------------------|
|-----------------------------------------------------------------|


  Em
    S   S S S  S  S  S S   S  S S S   S  S  S     S
|---------------------------------------------------|
|---------------------------------------------------|
|---------------------------------------------------|
|---------------------------------------------------|
|---------------------------------------------------|
|---0---0-0-0--0--0--0-0---0--0-0-0---0--0--2-----2-|
|
|  +Q          S  S  E    +Q         +E     E
|-(17)r-------19-17-19---(19)-------(19)------------|
|------------------------------------------17b19====|
|---------------------------------------------------|
|---------------------------------------------------|
|---------------------------------------------------|
|---------------------------------------------------|


  G                        A
    S  S S S   S   S  S  S  S  S  S  S  S  S  S  S
|--------------------------------------------------|
|--------------------------------------------------|
|--------------------------------------------------|
|---------------------------------------0--0--0--0-|
|---------------------------0--0--0--0-------------|
|---3--3-3-3---3---3--3--3-------------------------|
|
|  +Q         +E      S  S  S  S  S  S  S  S  S  S
|--------------------14h15p14-------14-------------|
|-(17)-------(17)r------------17p15----17p14-15p14-|
|--------------------------------------------------|
|--------------------------------------------------|
|--------------------------------------------------|
|--------------------------------------------------|


  Bm
   S  S  S  S  S S S S S S S S   S  S   S S
|-------------------------------------------|
|-------------------------------------------|
|-------------------------------------------|
|-------------------------------------------|
|--2--2--2--2--2-2-2-2-2-2-2-2---2--2---2-2-|
|-------------------------------------------|
|
|  S  S  S  S  H                +E      E
|-------------------------------------------|
|-------14----------------------------------|
|-16p14----14-16---------------(16)---/16---|
|-------------------------------------------|
|-------------------------------------------|
|-------------------------------------------|


  G                       D/F#
   S  S  S  S  S  S  S  S  S  S  S  S  S  S  S  S
|-------------------------------------------------|
|-------------------------------------------------|
|-------------------------------------------------|
|-------------------------------------------------|
|-------------------------------------------------|
|--3--3--3--3--3--3--3--3--2--2--2--2--2--2--2--2-|
|
|  S  S  S  S  S  S  S  S  S  S  S  S  S  S  S  S
|-19----17S19S17----------------------------------|
|-------------------19----17S19S17----------------|
|----16----------16----16----------16-19-16-18S19-|
|-------------------------------------------------|
|-------------------------------------------------|
|-------------------------------------------------|


  Em
    S  S  S  S  S     S   S   S  S S S S S S S S
|------------------------------------------------|
|------------------------------------------------|
|------------------------------------------------|
|------------------------------------------------|
|------------------------------------------------|
|---0--0--0--0--0-----0---0---0--0-0-0-0-0-0-2-2-|
|
|   S  S  S  S  E        +S   S  H
|------------------------------------------------|
|------------------------------------------------|
|-\18-18-18S19S18b19====(18)r18-16---------------|
|------------------------------------------------|
|------------------------------------------------|
|------------------------------------------------|


  G                       A
   S  S  S  S  S  S  S  S  S  S  S  S  S  S  S  S
|-------------------------------------------------|
|-------------------------------------------------|
|-------------------------------------------------|
|-------------------------------------------------|
|--------------------------------------5--5--5--5-|
|--3--3--3--3--3--3--3--3--5--5--5--5-------------|
|
|  S  S  S  S  S  S  S  S  S  S  S  S  S  S  S  S
|-------------------------------------------------|
|-------------------------------------------------|
|-------------------------------11h12p11----------|
|-------12-16-------12-16-12-16----------16p12h16-|
|-12-14-------12-14-------------------------------|
|-------------------------------------------------|


  Bm
   S  S  S  S  S  S  S  S  S  S  S  S  S  S  S  S
|-------------------------------------------------|
|-------------------------------------------------|
|-------------------------------------------------|
|-------------------------------------------------|
|--2--2--2--2--2--2--2--2--2--2--2--2--2--2--2--2-|
|-------------------------------------------------|
|
|  S  S  S  S  S  S  S  S  S  S  S  S  S  S  S  S
|-------------------------------------------------|
|-------------12-------14p10----15p12-14p12-------|
|-12h14p12-------14p12-------12-------------14-13-|
|----------16-------------------------------------|
|-------------------------------------------------|
|-------------------------------------------------|


  G                       D/F#
   S  S  S  S  S  S  S  S  S  S  S S  S  S  S S
|-----------------------------------------------|
|-----------------------------------------------|
|-----------------------------------------------|
|-----------------------------------------------|
|-----------------------------------------------|
|--3--3--3--3--3--3--3--3--2--2--2-2--2--2--2-2-|
|
|  S  S  S  S  S  S  S  S  S  S  S S  S  S  S S
|------------------------------------12-11-10-9-|
|-15-14-13-12-------------12-11-10-8------------|
|-------------14-13-12-11-----------------------|
|-----------------------------------------------|
|-----------------------------------------------|
|-----------------------------------------------|


  Em
   S     S S S   S   S  S  S  S S S S   S  S  S  S
|--------------------------------------------------|
|--------------------------------------------------|
|--------------------------------------------------|
|--------------------------------------------------|
|--------------------------------------------------|
|--0-----0-0-0---0---0--0--0--0-0-0-0---0--0--2--2-|
|
|  Q            +E      S  S  Q        +E     S  S
|-12b14========(12)r---12p10-----------------14-14-|
|----------------------------12-------(12)---------|
|--------------------------------------------------|
|--------------------------------------------------|
|--------------------------------------------------|
|--------------------------------------------------|


  G                       A
   S  S  S  S  S  S  S  S  S S S S S  S  S S
|--------------------------------------------|
|--------------------------------------------|
|--------------------------------------------|
|--------------------------------------------|
|----------------------------------5--5--5-5-|
|--3--3--3--3--3--3--3--3--5-5-5-5-----------|
|
|  S  S  S  S  S  S  S  S  S S S S S  S  E
|-14S10-10-10-10S12-12-12-12S7-7-7-7S10-10---|
|--------------------------------------------|
|--------------------------------------------|
|--------------------------------------------|
|--------------------------------------------|
|--------------------------------------------|


  Bm
  S S S S  S   S S S S S S S  S  S S  S
|---------------------------------------|
|---------------------------------------|
|---------------------------------------|
|---------------------------------------|
|-2-2-2-2--2---2-2-2-2-2-2-2--2--2-2--2-|
|---------------------------------------|
|
| Q       +S   S S S Q       +E    S  S
|-9-------(9)h10p9p7-9-------(9)---9h10-|
|---------------------------------------|
|---------------------------------------|
|---------------------------------------|
|---------------------------------------|
|---------------------------------------|


  G                       D/F#
   S  S  S  S  S  S  S  S  S  S  S  S  S  S  S  S
|-------------------------------------------------|
|-------------------------------------------------|
|-------------------------------------------------|
|-------------------------------------------------|
|-------------------------------------------------|
|--3--3--3--3--3--3--3--3--2--2--2--2--2--2--2--2-|
|
|  S  S  S  S  S  S  S  S  S  S  S  S  S  S  S  S
|-14h15p14p10-14p10-------------------------------|
|-------------------14h15p14p10-14p10-------------|
|-------------------------------------14h16p14p11-|
|-------------------------------------------------|
|-------------------------------------------------|
|-------------------------------------------------|


  Em
   S S S S   S  S  S  S  S     S     S     S     S  S S S
|---------------------------------------------------------|
|---------------------------------------------------------|
|---------------------------------------------------------|
|---------------------------------------------------------|
|---------------------------------------------------------|
|--0-0-0-0---0--0--0--0--0-----0-----0-----0-----2--2-2-2-|
|
|  Q        +E     S  S  T  T  T  T  T  T  T  T  Q
|---------------------------------------------------------|
|---------------------------------------------------------|
|-12-------(12)---11h14p12p11-----------------------------|
|-----------------------------14p12p11--------------------|
|--------------------------------------14p12p10-14\-------|
|---------------------------------------------------------|


  G                             A
   S S    S    S  S S    S    S  S S    S    S  S S    S    S
|--------------------------------------------------------------||
|--------------------------------------------------------------||
|--------------------------------------------------------------||
|--------------------------------------------------------------||
|-----------------------------------------------5-5----5----5--||
|--3-3----3----3--3-3----3----3--5-5----5----5-----------------||
|
|  |----3----|    |----3----|    |----3----|    |----3----|
|  E    E    E    E    E    E    E    E    E    E    E    E
|-------------------------------17---19---21---22---21---22----||
|--------------------------17----------------------------------||
|-----------16---18---19---------------------------------------||
|------16------------------------------------------------------||
|-17-----------------------------------------------------------||
|--------------------------------------------------------------||


 Rafael Solo (3:59)
  Q=145
  Am            D/F#           G             Em
  Gtr II
   E E E E   E  E   E   E       E    E E E E E E E
|--------0-------------------|---------------------|
|------1-----3---------------|-----------1-0-------|
|----0------------------2----|---------0---------0-|
|-------------------0--------|-------0---------2---|
|--0-------------------------|---------------------|
|---------------2------------|--3------------0-----|
|
| Gtr III
|  H        +Q     +E   E       W
|-24-------(24)---(24)-------|---------------------|
|----------------------15b17r|=15b17---------------|
|----------------------------|---------------------|
|----------------------------|---------------------|
|----------------------------|---------------------|
|----------------------------|---------------------|


  F                  G
   E    E E E  E     E   E    E
|----------------------------------|
|----------------------------------|
|-----------2--0--------------0----|
|---------3--------------0---------|
|-------3--------------------------|
|--1-----------------3-------------|
|
|  H           Q        +E    S  S
|----------------------------------|
|-15b17-------15b17====(15)r=15p13-|
|-15b17-------15b17====(15)r-------|
|----------------------------------|
|----------------------------------|
|----------------------------------|


  Am                                                D/F#
   E E E E   E   E  E  E    E     E   E   E  E      E   E   E
|------------0-----------|----------------0----------------------|
|--------1----------1----|-------------------3-------------------|
|------2---------2-----2-|------------2---------------------2----|
|----2-------------------|--------2---------------------0--------|
|--0---------------------|--0------------------------------------|
|------------------------|--------------------------2------------|
|
|                                            ~~~~~~~
|  H        +E   E  E  E    Q        +Q      Q         +E   S  S
|------------------17----|-19b21====(19)r---19pb21====(19)r19p17-|
|---------------17----17-|---------------------------------------|
|-14-------(14)----------|---------------------------------------|
|------------------------|---------------------------------------|
|------------------------|---------------------------------------|
|------------------------|---------------------------------------|


  G              Em
   E  E  E  E  E E   E  E
|-------------------------|
|-----------1--0----------|
|--------0--------------0-|
|-----0--------------2----|
|-------------------------|
|--3-------------0--------|
|
|  E  E  E  E  Q    +Q
|-17S19-19S15-15---(15)---|
|-------------------------|
|-------------------------|
|-------------------------|
|-------------------------|
|-------------------------|


  F                 G               Am
   E  E     E  E  E  E    E  E       E     E E E   E   E  E  E
|---------------------------------|----------------0-----------|
|---------------------------------|------------1----------1----|
|--------------2--0----------0----|----------2---------2-----2-|
|-----------3-------------0-------|--------2-------------------|
|-----3---------------------------|--0-------------------------|
|--1-----------------3------------|----------------------------|
|
|  E  S  S  E  E  E  Q       S  S    H            +Q      E  E
|-20-19-20-17----17---------------|-------------------------12-|
|-------------20----20b22r==20p17-|-20b22========(20)r---15----|
|---------------------------------|----------------------------|
|---------------------------------|----------------------------|
|---------------------------------|----------------------------|
|---------------------------------|----------------------------|


  Dm
   E        E     E     E     E     E     E    E
|----------------------------------------------------|
|-----------------------6-----------------5----------|
|-----------------7-----------7----------------7-----|
|-----------7-----------------------7----------------|
|--5-------------------------------------------------|
|----------------------------------------------------|
|
|  |--3--|
|  S  S  S  S  S  S  S  S  S  S  S  S  S  S  S S  S
|-12h13p12-------------------------------------------|
|----------15p13p12----------10h13----10-------------|
|-------------------14p12h14-------12----12p10p9h10--|
|----------------------------------------------------|
|----------------------------------------------------|
|----------------------------------------------------|


  Bb/D
  Gtr II
   E       E   E     E   E E E E
|--------------------------------|
|--------------------3-------5-6-|
|--------------3---------3-------|
|----------3---------------3-----|
|--5-----------------------------|
|--------------------------------|
|
| Gtr III
|  |-3--|
|  S  S S  S S S  S  S S H
|--------------------------------|
|--------------------------------|
|-12p10p9------9-----------------|
|---------10-8---12-10-8S5-------|
|--------------------------------|
|--------------------------------|
|
| Gtr V
|  W
|--------------------------------|
|--------------------------------|
|--------------------------------|
|--------------------------------|
|--------------------------------|
|--------------------------------|


  C                        F         C/E
   E  E  E  E  E  E  E E   E  E  E E  E  E E E
|------------------------|---------------------|
|--5-----------5---------|---------------------|
|-----5-----5-----5----5-|-------5---------5---|
|--------5-----------5---|----7----7-----7---7-|
|------------------------|-8----------7--------|
|------------------------|---------------------|
|
|                                     ~~~
|  E  E  E  E  E  E  E E   E  E  E E  H
|------------------------|---------------------|
|------------------------|---------------------|
|--9S12-12S10-10S=9--9S7-|-7S=9--9S5-[5]-------|
|------------------------|---------------------|
|------------------------|---------------------|
|------------------------|---------------------|
|
|  E  E  E  E  E  E  E E   E  E  E E  H
|------------------------|---------------------|
|------------------------|---------------------|
|------------------------|---------------------|
|-10S14-14S12-12S10-10S9-|-9S10-10S7-[7]-------|
|------------------------|---------------------|
|------------------------|---------------------|


  Dm
  Gtr II
   E    E E E  E        E   E  E
|--------------------------------|
|--------------6-----------------|
|---------7-------------7------7-|
|-------7---7---------------7----|
|--5-----------------------------|
|--------------------------------|
|
| Gtr III
|              ~~~~~~~
|  H           E       +E   E  E
|--------------------------------|
|-13b15-------13pb15==(13)r13p10-|
|--------------------------------|
|--------------------------------|
|--------------------------------|
|--------------------------------|


  Bb/D                        C
   E  E       E E  E  E E E   E E   E E E E E E
|---------------------------|--------------------|
|---------------3-----3-5-6-|-5---------5--------|
|-------------3----3--------|---5---------5---5--|
|-----3---------------------|-------5-------5----|
|--5------------------------|---------3----------|
|---------------------------|--------------------|
|
|     |--3--|
|  E  S  S  S E E +H          E S S E E E E E E
|---------------------------|--------------------|
|---------------------------|--------------------|
|-12-10h12p10s9-9-(9)-------|-7h9p7S5-4-5-4------|
|---------------------------|---------------5----|
|---------------------------|-----------------7--|
|---------------------------|--------------------|


  G/B               Am                                           G
  E E E E E E E E    E    E E E  E    E E E    E     E E E   E    E      +Q
|---------3-------|-------------------------|----------------------------------|
|-----3-----3---3-|-------------------------|---------------------3------(3)---|
|---0---0-----0---|-------------------------|---------------------0------(0)---|
|-----------------|--2----2-2-2--2----2-2-2-|--2-----2-2-2---2----0------(0)---|
|-2---------------|--0----0-0-0--0----0-0-0-|--0-----0-0-0---0-----------------|
|-----------------|-------------------------|---------------------3------(3)---|
|
| E E E E H          H           H             H            +E    E      +Q
|-----------------|-------------------------|--------------------15-----(15)---|
|-----------------|-10----------12----------|-13-----------(13)--18b20==(18)r--|
|-----------------|-12b14-------14b16-------|-16b17========(16)r---------------|
|-----------------|-------------------------|----------------------------------|
|-5S7S5S2-2-------|-------------------------|----------------------------------|
|-----------------|-------------------------|----------------------------------|


   Outro (4:27)
    F                         G        Am                    G
    Gtrs III, IV
     W             +H     +E  E +Q     W          +H     +E  E +Q
||---------------|-------------------|----------|--------------------||
||o--------------|------------3-(3)--|----------|------------3-(3)--o||
||---------------|------------0-(0)--|----------|------------0-(0)---||
||---------------|------------0-(0)--|-2--------|-(2)----(2)-0-(0)---||
||o--3-----------|-(3)----(3)--------|-0--------|-(0)----(0)--------o||
||---1-----------|-(1)----(1)-3-(3)--|----------|------------3-(3)---||
|
|   Gtr V
|    >
|    W              W                  W           W
||--17-----------|-------------------|----------|--------------------||
||o-20b22--------|-------------------|----------|-------------------o||
||---------------|-------------------|----------|--------------------||
||---------------|-------------------|----------|--------------------||
||o--------------|-------------------|----------|-------------------o||
||---------------|-------------------|----------|--------------------||


  F                              Dm
  Gtrs III, IV
  W          +H     +E  E +Q     W          +H     +E  E +Q
|----------|-------------------|----------|--------------------|
|----------|-------------------|-3--------|-(3)----(3)-3-(3)---|
|----------|-------------------|-2--------|-(2)----(2)-2-(2)---|
|----------|-------------------|-0--------|-(0)----(0)-0-(0)---|
|-3--------|-(3)----(3)--------|----------|--------------------|
|-1--------|-(1)----(1)-0-(0)--|----------|--------------------|


  C                     Dm       E
  W          +H     +E  E +Q     W          +W
|----------|-------------------|-0--------|-(0)----|
|----------|------------3-(3)--|-0--------|-(0)----|
|----------|------------2-(2)--|----------|--------|
|-5--------|-(5)----(5)-0-(0)--|-2--------|-(2)----|
|-3--------|-(3)----(3)--------|-2--------|-(2)----|
|----------|-------------------|-0--------|-(0)----|


  Ending (4:53)
   Am        D/F#    G         Em      F         G       Am
   Gtr IV
   >
   W                 W                 W                 W
||-----------------|-----------------|-----------------|-----------------|
||-----------------|-----------------|-----------------|-----------------|
||-----------------|-----------------|-----------------|-----------------|
||-2---------------|-----------------|-----------------|-----------------|
||-0---------------|-----------------|-----------------|-----------------|
||-----------------|-----------------|-----------------|-----------------|
|
|  Gtr I
|  E E E E E E E E   E E E E E E E E   E E E E E E E E   E E E E E E E E
||-------0---------|-----------------|-----------------|---------0-------|
||---------3-------|-------1-0-------|-----------------|-------1-----1---|
||-----2---------2-|-----0---------0-|-------2-0-----0-|-----2-----2---2-|
||---2---------0---|---0---------2---|-----3-------0---|---2-------------|
||-0---------------|-----------------|---3-------------|-0---------------|
||-----------2-----|-3---------0-----|-1---------3-----|-----------------|


                    H.=H
  Am        D/F#    G         Em      F       G         A
  Gtr I
  E E E E E E E E   E E E E E E E E   E E E E E E E E   E E E E +Q     Q
|-------0---------|-----------------|-----------------|--------------<12>---*|
|---------3-------|-------1-0-------|---------------0-|-------2-(2)---------*|
|-----2---------2-|-----0---------0-|-------2-----0---|-----2---------------*|
|---2---------0---|---0---------2---|-----3-----0-----|---2-----------------*|
|-0---------------|-----------------|---3-------------|-0-------------------*|
|-----------2-----|-3---------0-----|-1-------3-------|---------------------*|



Duration Legend
---------------
W - whole; H - half; Q - quarter; E - 8th; S - 16th; T - 32nd; X - 64th; a - acciaccatura
+ - note tied to previous; . - note dotted; .. - note double dotted
Uncapitalized letters represent notes that are staccato (1/2 duration)
Irregular groupings are notated above the duration line
Duration letters will always appear directly above the note/fret number it represents the
duration for.  Duration letters with no fret number below them represent rests.  Multi-
bar rests are notated in the form Wxn, where n is the number of bars to rest for.  Low
melody durations appear below the staff

Tablature Legend
----------------
 h   - hammer-on
 p   - pull-off
 b   - bend
 pb  - pre-bend
 r   - bend release (if no number after the r, then release immediately)
 /\  - slide into or out of (from/to "nowhere")
 s   - legato slide
 S   - shift slide
 - natural harmonic
[n]  - artificial harmonic
n(n) - tapped harmonic
 ~   - vibrato
 tr  - trill
 T   - tap
 TP  - trem. picking
 PM  - palm muting
\n/  - tremolo bar dip; n = amount to dip
 \n  - tremolo bar down
 n/  - tremolo bar up
/n\  - tremolo bar inverted dip
 =   - hold bend; also acts as connecting device for hammers/pulls
 <> - volume swell (louder/softer)
 x   - on rhythm slash represents muted slash
 o   - on rhythm slash represents single note slash

Misc Legend
-----------
 |  - bar
||  - double bar
||o - repeat start
o|| - repeat end
*|  - double bar (ending)
 :  - bar (freetime)
 $  - Segno
 &  - Coda
Tempo markers -  = BPM(8/16=s8/s16), where s8 = swing 8ths, s16 = swing 16ths


            
            
Suggest correction
Creating personal tab
Creating personal tab
You can edit any tab online and save it as your Personal.

You can edit, replace or remove any tab part or add personal notes – all changes will be seen only by you.

Personal tabs can be accessed anytime from any device, even offline.
Learn more »
Give kudos to tab author, rate the tab!
1 2 3 4 5
comments
print report bad tab
guest
You may want to rate the tab now too:
select rating
Wanna post a correction for this tab? Suggest correction