Oops, an error
Loading. Please wait.

Temple Of Hate tab

version 1
version 1

Whole song

Interactive

by Angra
3,351 views 1 this week
no commentswrite comment
1 2 3 4 5
2 more votes to show rating
add to favorites
×
Save as Personal and add changes to this tab that will be seen only by you. Learn more ›
×
You can save this tab as Personal to edit and correct it or add notes. All changes will be seen only by you. Learn more »
launch autoscroll
font size
0
reset
how to read this tab
guitar tuner
backing track
0:00
0:00
edit
Autoscroll
slow
fast
+/-
esc
set tempo
stop
#----------------------------------PLEASE NOTE---------------------------------#
#This file is the author's own work and represents their interpretation of the #
#song. You may only use this file for private study, scholarship, or research. #
#------------------------------------------------------------------------------#

TEMPLE OF HATE
As recorded by Angra
(From the 2005 Album TEMPLE OF SHADOWS)

Transcribed by Ivan - (peekaboo104@hotmail.com) (JULI0)
        

Words and Music by Angra

Gtr I (E A D G B E) - 'Kiko Loureiro - Lead I '
Gtr II (E A D G B E) - 'Rafael Bittencourt - Lead II'
Gtr III (E A D G B E) - 'Rhythm / Overdubb'
Gtr IV (E A D G B E) - 'Strings I'
Gtr V (E A D G B E) - 'Strings II'

   Intro
    Moderately Fast Q=180
    E5
   4/4
    Gtr I
    |---3---| |--3--|  |--3--| |3-|  |-3--|
    E  E    E E  E  E  S  S  S S  E  E E  E
||------------------------------------------|
||o-----------------------------------------|
||------------9-11-12-11h12p11p9------------|
||--9-10---12--------------------12-10-9----|
||o--------------------------------------12-|
||------------------------------------------|
|
|   Gtr II
|   |---3---| |--3--|  |--3--| |3-|  |-3--|
|   E  E    E E  E  E  S  S  S S  E  E E  E
||------------------------------------------|
||o-----------8-10-12-10h12p10p8------------|
||--7--9---10--------------------11--9-7----|
||---------------------------------------10-|
||o-----------------------------------------|
||------------------------------------------|
|
|   Gtr III
|   E    E    Q        H
||------------------------------------------|
||o-----------------------------------------|
||------------------------------------------|
||------------------------------------------|
||o-2---------------------------------------|
||--0---------------------------------------|


  |---3---| |--3--|  |--3--| |3-|  |-3--|
  E  E    E E  E  E  S  S  S S  E  E E  E
|-----------------------------------------|
|-----------------------------------------|
|-----------9-11-12-11h12p11p9------------|
|-9-10---12--------------------12-10-9----|
|--------------------------------------12-|
|-----------------------------------------|
|
| |---3---| |--3--|  |--3--| |3-|  |-3--|
| E  E    E E  E  E  S  S  S S  E  E E  E
|-----------------------------------------|
|-----------8-10-12-10h12p10p8------------|
|-7--9---10--------------------11--9-7----|
|--------------------------------------10-|
|-----------------------------------------|
|-----------------------------------------|
|
| E    E    Q        H
|-----------------------------------------|
|-----------------------------------------|
|-----------------------------------------|
|-----------------------------------------|
|-2---------------------------------------|
|-0---------------------------------------|


  1.
  B5
   |---3---|    |---3---|  |--3--|  |--3--|
   E  E    E    E  E    E  E  E  E  E  E  E
|-------------------------------------------|
|-------------------------------------------|
|----------------------------11-------11-12-|
|---------10---13------10-13----10-13-------|
|--9-12-----------12------------------------|
|-------------------------------------------|
|
|  |---3---|    |---3---|  |--3--|  |--3--|
|  E  E    E    E  E    E  E  E  E  E  E  E
|-------------------------------------------|
|-------------------------------------------|
|----------------------------14-------14-16-|
|---------13---16------13-16----13-16-------|
|-12-15-----------15------------------------|
|-------------------------------------------|
|
|       PM-----------|
|  E    S    S  E    E     H
|-------------------------------------------|
|-------------------------------------------|
|-------------------------------------------|
|--4-----------------------4----------------|
|--2----2----2--2----2-----2----------------|
|-------------------------------------------|


   |---3---|    |---3---|  |--3--|
   E  E    E    E  E    E  E  E  E  Q
|---------------------------------------||
|----------------------------------12--o||
|-14-12---11--------------------11------||
|--------------14-12---10----13---------||
|-------------------------14-----------o||
|---------------------------------------||
|
|  |---3---|    |---3---|  |--3--|
|  E  E    E    E  E    E  E  E  E  Q
|---------------------------------------||
|----------------------------------16--o||
|-17-16---14--------------------16------||
|--------------17-16---14----16---------||
|-------------------------18-----------o||
|---------------------------------------||
|
|       PM-----------|
|  E    S    S  E    E     Q        Q
|---------------------------------------||
|--------------------------------------o||
|---------------------------------------||
|--4-----------------------4--------4---||
|--2----2----2--2----2-----2--------2--o||
|---------------------------------------||


  2.
   |---3---|    |---3---|  |--3--|  |--3--|
   E  E    E    E  E    E  E  E  E  E  E  E
|-------------------------------------------|
|-------------------------------------------|
|----------------------------11-14-------11-|
|---------10---13------10-13-------10-13----|
|--9-12-----------12------------------------|
|-------------------------------------------|
|
|  |---3---|    |---3---|  |--3--|  |--3--|
|  E  E    E    E  E    E  E  E  E  E  E  E
|-------------------------------------------|
|-------------------------------------------|
|----------------------------14-17-------14-|
|---------13---16------13-16-------13-16----|
|-12-15-----------15------------------------|
|-------------------------------------------|
|
|       PM-----------|
|  E    S    S  E    E     H
|-------------------------------------------|
|-------------------------------------------|
|-------------------------------------------|
|--4-----------------------4----------------|
|--2----2----2--2----2-----2----------------|
|-------------------------------------------|


   |---3---|    |---3---|  |--3--|
   E  E    E    E  E    E  E  E  E  Q
|---------11---14p11------------11-17--||
|----13----------------13----13--------||
|-14----------------------14-----------||
|--------------------------------------||
|--------------------------------------||
|--------------------------------------||
|
|  |---3---|    |---3---|  |--3--|
|  E  E    E    E  E    E  E  E  E  Q
|---------14---17p14------------14-20--||
|----16----------------16----16--------||
|-17----------------------17-----------||
|--------------------------------------||
|--------------------------------------||
|--------------------------------------||
|
|       PM-----------|
|  E    S    S  E    E     Q        Q
|--------------------------------------||
|--------------------------------------||
|--------------------------------------||
|--4-----------------------4--------4--||
|--2----2----2--2----2-----2--------2--||
|--------------------------------------||


  A5
   +Q    Q   Q   Q     Q      +Q    Q   Q
|-(17)--------------|----------------------|
|-----------10--12--|-12b13r=(12)--10------|
|--------9----------|------------------12--|
|-------------------|----------------------|
|-------------------|----------------------|
|-------------------|----------------------|
|
|  +Q    Q   Q   Q     Q      +Q    Q   Q
|-(20)--------------|----------------------|
|-----------13--15--|-15b17r=(15)--13--12--|
|-------12----------|----------------------|
|-------------------|----------------------|
|-------------------|----------------------|
|-------------------|----------------------|
|
|   W                 +W
|-------------------|----------------------|
|-------------------|----------------------|
|---2---------------|-(2)------------------|
|---2---------------|-(2)------------------|
|---0---------------|-(0)------------------|
|-------------------|----------------------|


  B5
   H     Q      +Q      H      H
|--------------------|--------------||
|--------------------|--------------||
|-11----12b14r=(12)--|-11-----------||
|--------------------|--------13----||
|--------------------|--------------||
|--------------------|--------------||
|
|  H     Q      +Q      H      H
|--------------------|--------------||
|--------------------|--------------||
|-14----16b17r=(16)--|-14-----------||
|--------------------|--------16----||
|--------------------|--------------||
|--------------------|--------------||
|
|  W                   +W
|--------------------|--------------||
|--------------------|--------------||
|--4-----------------|-(4)----------||
|--4-----------------|-(4)----------||
|--2-----------------|-(2)----------||
|--------------------|--------------||


  E5
  |---3---| |--3--|  |--3--| |3-|  |-3--|
  E  E    E E  E  E  S  S  S S  E  E E  E
|-----------------------------------------|
|-----------------------------------------|
|-----------9-11-12-11h12p11p9------------|
|-9-10---12--------------------12-10-9----|
|--------------------------------------12-|
|-----------------------------------------|
|
| |---3---| |--3--|  |--3--| |3-|  |-3--|
| E  E    E E  E  E  S  S  S S  E  E E  E
|-----------------------------------------|
|-----------8-10-12-10h12p10p8------------|
|-7--9---10--------------------11--9-7----|
|--------------------------------------10-|
|-----------------------------------------|
|-----------------------------------------|
|
| E    E    Q        H
|-----------------------------------------|
|-----------------------------------------|
|-----------------------------------------|
|-----------------------------------------|
|-2---------------------------------------|
|-0---------------------------------------|


                    E/G#
  |---3---| |--3--|  |--3--| |3-|  |-3--|
  E  E    E E  E  E  S  S  S S  E  E E  E
|-----------------------------------------||
|-----------------------------------------||
|-----------9-11-12-11h12p11p9------------||
|-9-10---12--------------------12-10-9----||
|--------------------------------------12-||
|-----------------------------------------||
|
| |---3---| |--3--|  |--3--| |3-|  |-3--|
| E  E    E E  E  E  S  S  S S  E  E E  E
|-----------------------------------------||
|-----------8-10-12-10h12p10p8------------||
|-7--9---10--------------------11--9-7----||
|--------------------------------------10-||
|-----------------------------------------||
|-----------------------------------------||
|
| E    E    Q        E       E     Q
|-----------------------------------------||
|-----------------------------------------||
|-----------------------------------------||
|-----------------------------------------||
|-2------------------7--------------------||
|-0------------------4--------------------||


  A5                                        B5
    Q   Q   Q   Q     Q      +Q    Q   Q     H     H       H      H
|------------------|----------------------|-------------|-11-----14----||
|----------10--12--|-12b13r=(12)--10------|-------12----|--------------||
|-------9----------|------------------12--|-11----------|--------------||
|--10--------------|----------------------|-------------|--------------||
|------------------|----------------------|-------------|--------------||
|------------------|----------------------|-------------|--------------||
|
|   Q   Q   Q   Q     Q      +Q    Q   Q     H     H       H      H
|------------------|----------------------|-------------|-14-----17----||
|----------13--15--|-15b17r=(15)--13------|-------16----|--------------||
|------12----------|------------------16--|-14----------|--------------||
|-/14--------------|----------------------|-------------|--------------||
|------------------|----------------------|-------------|--------------||
|------------------|----------------------|-------------|--------------||
|
|   W                +W                      W            +W
|------------------|----------------------|-------------|--------------||
|------------------|----------------------|-------------|--------------||
|---2--------------|-(2)------------------|--4----------|-(4)----------||
|---2--------------|-(2)------------------|--4----------|-(4)----------||
|---0--------------|-(0)------------------|--2----------|-(2)----------||
|------------------|----------------------|-------------|--------------||


  (C)
                  T           T            T
   S  S  S  S  S  S  S  S  S  S  S  S  S   S  S  S
|-----------------------8h12-15p12p=8--------------|
|--------------------------------------------------|
|-----9h12p=9h12-17p12----------------12p-17p12p=9-|
|-10-----------------------------------------------|
|--------------------------------------------------|
|--------------------------------------------------|
|
|                 T           T            T
|  S  S  S  S  S  S  S  S  S  S  S  S  S   S  S  S
|----------------------12h15-20p15p12--------------|
|--------------------------------------------------|
|----12h17p12h17-21p17----------------17p-21p17p12-|
|-14-----------------------------------------------|
|--------------------------------------------------|
|--------------------------------------------------|
|
|  PM-----------------------------------------------
|  S  S  S  S  S  S  S  S  S  S  S  S  S   S  S  S
|--------------------------------------------------|
|--------------------------------------------------|
|--------------------------------------------------|
|--------------------------------------------------|
|--3--3--3--3--3--3--3--3--3--3--3--3--3---3--3--3-|
|--------------------------------------------------|


  (D)
                  T           T            T
   S  S  S  S  S  S  S  S  S  S  S  S  S   S  S  S
|----------------------10h14-17p14p10--------------|
|--------------------------------------------------|
|----11h14p11h14-19p14----------------14p-19p14p11-|
|-12-----------------------------------------------|
|--------------------------------------------------|
|--------------------------------------------------|
|
|                 T           T            T
|  S  S  S  S  S  S  S  S  S  S  S  S  S   S  S  S
|----------------------14h17-21p17p14--------------|
|--------------------------------------------------|
|----14h19p14h19-23p19----------------19p-23p19p14-|
|-16-----------------------------------------------|
|--------------------------------------------------|
|--------------------------------------------------|
|
|-----------------------------------------------|
|  S  S  S  S  S  S  S  S  S  S  S  S  S   S  S  S
|--------------------------------------------------|
|--------------------------------------------------|
|--------------------------------------------------|
|--------------------------------------------------|
|--5--5--5--5--5--5--5--5--5--5--5--5--5---5--5--5-|
|--------------------------------------------------|


  B5
                                 |--3--|  |------6-------|
   S  S  S  S  S  S  S  S  S  S  S  S  S  S  S  S  S  S  S
|-----------8h11s14----------------17----------------17h20-|
|-------10----------------------19----19----------19-------|
|--8h11-------------11h14S17h20----------20p17-20----------|
|----------------------------------------------------------|
|----------------------------------------------------------|
|----------------------------------------------------------|
|
|                                |--3--|  |------6-------|
|  S  S  S  S  S  S  S  S  S  S  S  S  S  S  S  S  S  S  S
|----------------17-------------17-20p17----------17h20s23-|
|-------------19-------------19----------19----19----------|
|-------17h20----------17h20----------------20-------------|
|-16h19-------------19-------------------------------------|
|----------------------------------------------------------|
|----------------------------------------------------------|
|
|  E     Q           E     Q              E        E
|----------------------------------------------------------|
|----------------------------------------------------------|
|----------------------------------------------------------|
|--4-----------------4--------------------4----------------|
|--2-----------------2--------------------2----------------|
|----------------------------------------------------------|


   +E.    S  S  S  S  S  S  S  S  S  S  S  S  S
|-(20)---19-17-15-------------------------------|
|-----------------19-17-19-17-15----------------|
|--------------------------------17-16-14-------|
|-----------------------------------------17-16-|
|-----------------------------------------------|
|-----------------------------------------------|
|
|  +E.    S  S  S  S  S  S  S  S  S  S  S  S  S
|-(23)---22-20-19-------------------------------|
|-----------------22-20-22-20-19----------------|
|--------------------------------21-19-17-------|
|-----------------------------------------21-19-|
|-----------------------------------------------|
|-----------------------------------------------|
|
|   E  E     Q           H
|-----------------------------------------------|
|-----------------------------------------------|
|-----------------------------------------------|
|------4----------------------------------------|
|------2----------------------------------------|
|-----------------------------------------------|


  E5                                                        D#5
   |---3---|  |--3--|  |--3--|  |3-|  |--3--|    |---3----|  |---3----|
   E  E    E  E  E  E  S  S  S  S  E  E  E  E    E Q.     Q  E Q.     Q
|------------12-14-15-14h15p14p12-------------|-------------------------||
|----12h==15----------------------15-13-12----|-------------------------||
|------------------------------------------14-|-------------------------||
|-14------------------------------------------|-14----------------------||
|---------------------------------------------|-------------14----------||
|---------------------------------------------|-------------------------||
|
|  |---3---|  |--3--|  |--3--|  |3-|  |--3--|    |---3----|  |---3----|
|  E  E    E  E  E  E  S  S  S  S  E  E  E  E    E Q.     Q  E Q.     Q
|------------15-17-19-17h19p17p15-------------|-------------------------||
|----17h==19----------------------19-17-15----|-------------------------||
|------------------------------------------17-|-------------------------||
|-17------------------------------------------|-17----------------------||
|---------------------------------------------|-------------18----------||
|---------------------------------------------|-------------------------||
|
|  E    E     Q        H                         E    E Q    E    E Q
|---------------------------------------------|-------------------------||
|---------------------------------------------|-------------------------||
|---------------------------------------------|-------------------------||
|--9------------------------------------------|--9-----------8----------||
|--7------------------------------------------|--7-----------6----------||
|---------------------------------------------|-------------------------||


  E5                           B5
   E  E  E  E  E  S  S  E  E    E  E  E  E  E  E  E  E
|----------------------------|-------------------------|
|-------12----10--------8-10-|-------------------------|
|--9--9-----9-----9--9-------|-11--7-----7-11--7-----7-|
|----------------------------|--------9-----------9----|
|----------------------------|-------------------------|
|----------------------------|-------------------------|
|
|  E  E  E  E  E  S  S  E  E    E  E  E  E  E  E  E  E
|----------------------------|-------------------------|
|-------15----13-------12-13-|-------------------------|
|-12-12----12----12-12-------|-14-11----11-14-11----11-|
|----------------------------|-------12----------12----|
|----------------------------|-------------------------|
|----------------------------|-------------------------|
|
|  W                            W
|----------------------------|-------------------------|
|----------------------------|-------------------------|
|----------------------------|--4----------------------|
|--2-------------------------|--4----------------------|
|--2-------------------------|--2----------------------|
|--0-------------------------|-------------------------|


  C5                        G5          D5/A
   E  E  E  E  E  E  E  E    E  E  E  E  E  E  E  E
|-------------------------|-------------------------|
|----------------------10-|-12-------12p10----10h12-|
|-12-------11-12-11-12----|-----9--9--------9-------|
|-----9-12----------------|-------------------------|
|-------------------------|-------------------------|
|-------------------------|-------------------------|
|
|  E  E  E  E  E  E  E  E    E  E  E  E  E  E  E  E
|-------------------------|-------------------------|
|----------------------13-|-15-------15p13----13h15-|
|-16-------14-16-14-16----|----12-12-------12-------|
|----12-16----------------|-------------------------|
|-------------------------|-------------------------|
|-------------------------|-------------------------|
|
|  W                         H           H
|-------------------------|-------------------------|
|-------------------------|-------------------------|
|--5----------------------|-------------------------|
|--5----------------------|--5-----------7----------|
|--3----------------------|--5-----------5----------|
|-------------------------|--3-----------5----------|


  E5                           B5
   E  E  E  E  E  S  S  E  E    E  E  E  E  E  E  E  E
|----------------------------|-------------------------|
|-------12----10--------8-10-|-------------------------|
|--9--9-----9-----9--9-------|-11--7-----7-11--7-----7-|
|----------------------------|--------9-----------9----|
|----------------------------|-------------------------|
|----------------------------|-------------------------|
|
|  E  E  E  E  E  S  S  E  E    E  E  E  E  E  E  E  E
|----------------------------|-------------------------|
|-------15----13-------12-13-|-------------------------|
|-12-12----12----12-12-------|-14-11----11-14-11----11-|
|----------------------------|-------12----------12----|
|----------------------------|-------------------------|
|----------------------------|-------------------------|
|
|  W                            W
|----------------------------|-------------------------|
|----------------------------|-------------------------|
|----------------------------|--4----------------------|
|--2-------------------------|--4----------------------|
|--2-------------------------|--2----------------------|
|--0-------------------------|-------------------------|


  C5                        D5          B/D#
   E  E  E  E  E  E  E  E    E  E  E  E  E  E  Q
|-------------------------|------------------------|
|----------------------10-|-12-------15s12----12/--|
|-12-------11-12-11-12----|-----9--9--------9------|
|-----9-12----------------|------------------------|
|-------------------------|------------------------|
|-------------------------|------------------------|
|
|  E  E  E  E  E  E  E  E    E  E  E  E  E  E  Q
|-------------------------|------------------------|
|----------------------13-|-15-------19s15----15/--|
|-16-------14-16-14-16----|----12-12-------12------|
|----12-16----------------|------------------------|
|-------------------------|------------------------|
|-------------------------|------------------------|
|
|  W                         H           H
|-------------------------|------------------------|
|-------------------------|------------------------|
|--5----------------------|--7-----------8---------|
|--5----------------------|--7-----------9---------|
|--3----------------------|--5-----------6---------|
|-------------------------|------------------------|


  (E)
   E   S S E   E    E   S S E   E      E   S S E   E    E   S S E   E
|-----------------------------------|-----------------------------------|
|-12---------------12---------------|-12---------------12---------------|
|------9-9-8---9--------9-9-8---9---|------9-9-8---9--------9-9-8---9---|
|-----------------------------------|-----------------------------------|
|-----------------------------------|-----------------------------------|
|-----------------------------------|-----------------------------------|
|
|  E   S S E   E    E   S S E   E      E   S S E   E    E   S S E   E
|-12---------------12---------------|-12---------------12---------------|
|------8-8-7---8--------8-8-7---8---|------8-8-7---8--------8-8-7---8---|
|-----------------------------------|-----------------------------------|
|-----------------------------------|-----------------------------------|
|-----------------------------------|-----------------------------------|
|-----------------------------------|-----------------------------------|
|
|  PM--------------------------------------------------------------------
|  S S S S S S S S  S S S S S S S S    S S S S S S S S  S S S S S S S S
|-----------------------------------|-----------------------------------|
|-----------------------------------|-----------------------------------|
|-----------------------------------|-----------------------------------|
|-----------------------------------|-----------------------------------|
|--7-7-7-7-7-7-7-7--7-7-7-7-7-7-7-7-|--7-7-7-7-7-7-7-7--7-7-7-7-7-7-7-7-|
|-----------------------------------|-----------------------------------|


  (D#)
   E   S S E   E    E   S S E   E      E   S S E   E    E   S S E   E
|-----------------------------------|--------------------------------------|
|-10---------------10---------------|-10---------------10------------------|
|------9-9-8---9--------9-9-8---9---|------9-9-8---9--------9-9-8---9------|
|-----------------------------------|--------------------------------------|
|-----------------------------------|--------------------------------------|
|-----------------------------------|--------------------------------------|
|
|  E   S S E   E    E   S S E   E      E   S S E   E    E   S S E   E
|-11---------------11---------------|-11---------------11------------------|
|------8-8-7---8--------8-8-7---8---|------8-8-7---8--------8-8-7---8------|
|-----------------------------------|--------------------------------------|
|-----------------------------------|--------------------------------------|
|-----------------------------------|--------------------------------------|
|-----------------------------------|--------------------------------------|
|
|---------------------------------------------------------------------|
|  S S S S S S S S  S S S S S S S S    S S S S S S S S  S S S S S S S S
|-----------------------------------|--------------------------------------|
|-----------------------------------|--------------------------------------|
|-----------------------------------|--------------------------------------|
|-----------------------------------|--------------------------------------|
|--6-6-6-6-6-6-6-6--6-6-6-6-6-6-6-6-|--6-6-6-6-6-6-6-6--6-6-6-6-6-6-6-6----|
|-----------------------------------|--------------------------------------|


  (C)
   E   S S E   E    E   S S E   E      E   S S E   E    E   S S E   E
|-----------------------------------|-----------------------------------|
|--8----------------8---------------|--8----------------8---------------|
|------9-9-8---9--------9-9-8---9---|------9-9-8---9--------9-9-8---9---|
|-----------------------------------|-----------------------------------|
|-----------------------------------|-----------------------------------|
|-----------------------------------|-----------------------------------|
|
|  E   S S E   E    E   S S E   E      E   S S E   E    E   S S E   E
|-12---------------12---------------|-12---------------12---------------|
|------8-8-7---8--------8-8-7---8---|------8-8-7---8--------8-8-7---8---|
|-----------------------------------|-----------------------------------|
|-----------------------------------|-----------------------------------|
|-----------------------------------|-----------------------------------|
|-----------------------------------|-----------------------------------|
|
|  PM--------------------------------------------------------------------
|  S S S S S S S S  S S S S S S S S    S S S S S S S S  S S S S S S S S
|-----------------------------------|-----------------------------------|
|-----------------------------------|-----------------------------------|
|-----------------------------------|-----------------------------------|
|-----------------------------------|-----------------------------------|
|--3-3-3-3-3-3-3-3--3-3-3-3-3-3-3-3-|--3-3-3-3-3-3-3-3--3-3-3-3-3-3-3-3-|
|-----------------------------------|-----------------------------------|


  (A)                                           (B)                   (G)      (F#)
        PM|        PM|        PM|        PM|          PM|        PM|      PM|      PM|
   E    S  S  E    S  S  E    S  S  E    S  S    E    S  S  E    S  S  E  S  S  E  S  S
|---------------------------------------------|-----------------------12-------14----------|
|-13---------12---------13---------15---------|-13---------15------------------------------|
|---------------------------------------------|--------------------------------------------|
|------10-10------10-10------10-10------10-10-|------10-10------10-10----10-10----10-10----|
|---------------------------------------------|--------------------------------------------|
|---------------------------------------------|--------------------------------------------|
|
|       PM|        PM|        PM|        PM|          PM|        PM|      PM|      PM|
|  E    S  S  E    S  S  E    S  S  E    S  S    E    S  S  E    S  S  E  S  S  E  S  S
|---------------------------------------------|-----------------------15-------17----------|
|-17---------16---------17---------19---------|-17---------19------------------------------|
|---------------------------------------------|--------------------------------------------|
|------14-14------14-14------14-14------14-14-|------14-14------14-14----14-14----14-14----|
|---------------------------------------------|--------------------------------------------|
|---------------------------------------------|--------------------------------------------|
|
|------------------------------------------------------------------|
|  S S  S  S  S S  S  S  S S  S  S  S S  S  S    S S  S  S  S S  S  S  Q        Q
|---------------------------------------------|--------------------------------------------|
|---------------------------------------------|--------------------------------------------|
|---------------------------------------------|--------------------------------------------|
|---------------------------------------------|--------------------------------------------|
|--0-0--0--0--0-0--0--0--0-0--0--0--0-0--0--0-|--2-2--2--2--2-2--2--2----------------------|
|---------------------------------------------|------------------------3--------2----------|


  (E)
          ~~~~
   a     +W                      W
|-14b15-(14)-------------------|---------------------||
|------------------------------|---------------------||
|------------------------------|---------------------||
|------------------------------|---------------------||
|------------------------------|---------------------||
|------------------------------|---------------------||
|
|         PM---------------------------------------|
|         E  E S S E E E S S E   E E S S E E E S S E
|------------------------------|---------------------||
|------------------------------|---------------------||
|------------------------------|---------------------||
|------------------------------|---------------------||
|------------------------------|---------------------||
|---------0--0-0-0-0-0-0-0-0-0-|-0-0-0-0-0-0-0-0-0-0-||


   Verses
    (E)
    Gtrs I, II
    PM--------------------------------------|
    E E S S E E E S S E   E E S S E E E S S E
||----------------------|---------------------|
||o---------------------|---------------------|
||----------------------|---------------------|
||----------------------|---------------------|
||o---------------------|---------------------|
||--0-0-0-0-0-0-0-0-0-0-|-0-0-0-0-0-0-0-0-0-0-|


  D5             A/C#        D5
             PM|   PM|   PM|   PM|
  W          S S E S S E S S E S S E
|----------|-------------------------|
|----------|-------------------------|
|----------|-------------------------|
|-7--------|-----7-----7-----7-----7-|
|-5--------|-4-4-4-4-4-4-5-5-5-5-5-5-|
|----------|-------------------------|


  (E)                                         C5         A5/E D5/A
  PM--------------------------------------|
  E E S S E E E S S E   E E S S E E E S S E   W          H    H
|---------------------|---------------------|----------|-----------|
|---------------------|---------------------|----------|-----------|
|---------------------|---------------------|----------|-----------|
|---------------------|---------------------|-5--------|-2----7----|
|---------------------|---------------------|-3--------|-0----5----|
|-0-0-0-0-0-0-0-0-0-0-|-0-0-0-0-0-0-0-0-0-0-|----------|-0----5----|


  (E)
  PM--------------------------------------|
  E E S S E E E S S E   E E S S E E E S S E
|---------------------|---------------------|
|---------------------|---------------------|
|---------------------|---------------------|
|---------------------|---------------------|
|---------------------|---------------------|
|-0-0-0-0-0-0-0-0-0-0-|-0-0-0-0-0-0-0-0-0-0-|


  D5             A/C#        D5
             PM|   PM|   PM|   PM|
  W          S S E S S E S S E S S E
|----------|--------------------------|
|----------|--------------------------|
|----------|--------------------------|
|-7--------|-----7-----7-----7-----7--|
|-5--------|-4-4-4-4-4-4-5-5-5-5-5-5--|
|----------|--------------------------|


  (E)
  PM--------------------------------------|
  E E S S E E E S S E   E E S S E E E S S E
|---------------------|---------------------|
|---------------------|---------------------|
|---------------------|---------------------|
|---------------------|---------------------|
|---------------------|---------------------|
|-0-0-0-0-0-0-0-0-0-0-|-0-0-0-0-0-0-0-0-0-0-|


  C5         (D)
             PM----------------------------|
  W          S S S S S S S S S S S S S S S S
|----------|---------------------------------||
|----------|---------------------------------||
|----------|---------------------------------||
|-5--------|---------------------------------||
|-3--------|-5-5-5-5-5-5-5-5-5-5-5-5-5-5-5-5-||
|----------|---------------------------------||


 Bridge I
  1.
  A5                      G5         B5
  W          +W           W          Q  Q  H
|----------|------------|----------|------------|
|----------|------------|----------|------------|
|----------|------------|----------|------------|
|-7--------|-(7)--------|-5--------|-4----------|
|-7--------|-(7)--------|-5--------|-2----------|
|-5--------|-(5)--------|-3--------|------------|


  (E)                  (C)   (G)
  PM|   PM   PM|       PM      PM|
  E E E E  E S S E E   E E E E E E E E
|--------------------|-----------------|
|--------------------|-----------------|
|--------------------|-----------------|
|-----9---10-----9-7-|---5-4-----------|
|-7-7---7----7-7-----|-3-----5-----9-7-|
|--------------------|---------3-3-----|


  (D)                 (A)     (C)
  PM|   PM  PM|   PM--|     PM|       PM
  E E E E E S S E E   E E E E E  E  E E
|-------------------|----------------------||
|-------------------|---------------------o||
|-------------------|----------------------||
|-----4---5-----4---|-----9--------12------||
|-5-5---5---5-5---5-|---7-------10--------o||
|-------------------|-5-----5-8-------8----||


 Bridge II
  2.
  A5                      G5         E5
  W          +W           W          W
|----------|------------|----------|------|
|----------|------------|----------|------|
|----------|------------|----------|------|
|-7--------|-(7)--------|-5--------|-2----|
|-7--------|-(7)--------|-5--------|-2----|
|-5--------|-(5)--------|-3--------|-0----|


  B5                      (C)
                          PM-------------------------------
  W          +W           S S S S S S S S S S S S S S S S
|----------|------------|---------------------------------|
|----------|------------|---------------------------------|
|----------|------------|---------------------------------|
|-4--------|-(4)--------|---------------------------------|
|-2--------|-(2)--------|-3-3-3-3-3-3-3-3-3-3-3-3-3-3-3-3-|
|----------|------------|---------------------------------|


  (D)
 -------------------------------|
  S S S S S S S S S S S S S S S S
|------------------------------------|
|------------------------------------|
|------------------------------------|
|------------------------------------|
|-5-5-5-5-5-5-5-5-5-5-5-5-5-5-5-5----|
|------------------------------------|


 Chorus
  $
  G5                      C5              (B)
                                          ~
  W          +W           W          H    H
|----------|------------|----------|-----------|
|----------|------------|----------|-----------|
|----------|------------|----------|-----------|
|-5--------|-(5)--------|-5--------|-5---------|
|-5--------|-(5)--------|-3--------|-3----2----|
|-3--------|-(3)--------|----------|-----------|


  A5                      D5              (C)
                                          ~
  W          +W           W          H    H
|----------|------------|----------|-----------|
|----------|------------|----------|-----------|
|----------|------------|----------|-----------|
|-7--------|-(7)--------|-7--------|-7---------|
|-7--------|-(7)--------|-5--------|-5----3----|
|-5--------|-(5)--------|----------|-----------|


  (B)
  PM-----------------------------------------------------------------
  S S S S S S S S S S S S S S S S   S S S S S S S S S S S S S S S S
|---------------------------------|---------------------------------|
|---------------------------------|---------------------------------|
|---------------------------------|---------------------------------|
|---------------------------------|---------------------------------|
|-2-2-2-2-2-2-2-2-2-2-2-2-2-2-2-2-|-2-2-2-2-2-2-2-2-2-2-2-2-2-2-2-2-|
|---------------------------------|---------------------------------|


  (E)                               (D)
 -----------------------------------------------------------------|
  S S S S S S S S S S S S S S S S   S S S S S S S S S S S S S S S S
|---------------------------------|------------------------------------||
|---------------------------------|------------------------------------||
|---------------------------------|------------------------------------||
|---------------------------------|------------------------------------||
|-7-7-7-7-7-7-7-7-7-7-7-7-7-7-7-7-|-5-5-5-5-5-5-5-5-5-5-5-5-5-5-5-5----||
|---------------------------------|------------------------------------||


  N.C.
  PM----------------------------------------------|
  |-3-| |-3-| |-3-| |-3-|   |-3-| |-3-| |-3-| |-3-|
  E E E E E E E E E E E E   E E E E E E E E E E E E
|-------------------------|-------------------------|
|-------------------------|-------------------------|
|-------------------------|-------------------------|
|-------------------------|-------------------------|
|-3-2-3-2-3-2-3-2-3-2-3-2-|-3-2-3-2-3-2-3-2-3-2-3-2-|
|-3-2-3-2-3-2-3-2-3-2-3-2-|-3-2-3-2-3-2-3-2-3-2-3-2-|


  D5/A
    PM|   PM|
  |-3-| |-3-|
  Q q q Q q q   Q.   E H
|-------------|-------------||
|-------------|-------------||
|-------------|-------------||
|-7-----7-----|-7\----------||
|-5-5-5-5-5-5-|-5\----------||
|-5-5-5-5-5-5-|-5\----------||


   Breakdown I
    (E)                  (C)   (G)
    PM|   PM   PM|       PM      PM|
    E E E E  E S S E E   E E E E E E E E
||---------------------|-----------------|
||o--------------------|-----------------|
||---------------------|-----------------|
||------9---10-----9-7-|---5-4-----------|
||o-7-7---7----7-7-----|-3-----5-----9-7-|
||---------------------|---------3-3-----|


  (D)                 (A)     (C)
  PM|   PM  PM|   PM--|     PM|       PM
  E E E E E S S E E   E E E E E  E  E E
|-------------------|---------------------||
|-------------------|--------------------o||
|-------------------|---------------------||
|-----4---5-----4---|-----9--------12-----||
|-5-5---5---5-5---5-|---7-------10-------o||
|-------------------|-5-----5-8-------8---||


  E5
  Gtr I
  |---3---| |--3--|  |--3--| |3-|  |-3--|
  E  E    E E  E  E  S  S  S S  E  E E  E
|-----------------------------------------|
|-----------------------------------------|
|-----------9-11-12-11h12p11p9------------|
|-9-10---12--------------------12-10-9----|
|--------------------------------------12-|
|-----------------------------------------|
|
| Gtr II
| |---3---| |--3--|  |--3--| |3-|  |-3--|
| E  E    E E  E  E  S  S  S S  E  E E  E
|-----------------------------------------|
|-----------8-10-12-10h12p10p8------------|
|-7--9---10--------------------11--9-7----|
|--------------------------------------10-|
|-----------------------------------------|
|-----------------------------------------|
|
| Gtr III
| E    E    Q        H
|-----------------------------------------|
|-----------------------------------------|
|-----------------------------------------|
|-9---------------------------------------|
|-7---------------------------------------|
|-----------------------------------------|


           To Coda
  E5      B/D#
   E E Q   E E Q     W          W
|-----------------||----------|------||
|-----------------||----------|------||
|-----------------||----------|------||
|-----------------||----------|------||
|-----------------||----------|------||
|-12-------7------||----------|------||
|
|  E E Q   E E Q     W          W
|-----------------||----------|------||
|-----------------||----------|------||
|-----------------||----------|------||
|-----------------||----------|------||
|-10--------------||----------|------||
|---------11------||----------|------||
|
|  E E Q   E E Q     W          W
|-----------------||----------|------||
|-----------------||----------|------||
|-----------------||----------|------||
|--9-------9------||----------|------||
|--7-------6------||----------|------||
|-----------------||----------|------||


 Guitar Solo I - K.Loureiro
  (E)
  Gtr I
   T     T         T     T         T
   S  S  S  S S S  S  S  S  S S S  S  S S S
|--8p=7--8p=7p3p0--8p=7--8p=7p3p0--8p=7p3p0-|
|-------------------------------------------|
|-------------------------------------------|
|-------------------------------------------|
|-------------------------------------------|
|-------------------------------------------|
|
| Gtr III
|  T     T         T     T         T
|  S  S  S  S S S  S  S  S  S S S  S  S S S
|-12p10-12p10p8p0-12p10-12p10p8p0-12p10p8p0-|
|-------------------------------------------|
|-------------------------------------------|
|-------------------------------------------|
|-------------------------------------------|
|-------------------------------------------|
|
| Gtr II
|  PM---------|          PM------------------
|  S  S  S  S e    E     S  S S S  S  S S S
|-------------------------------------------|
|-------------------------------------------|
|-------------------------------------------|
|-------------------------------------------|
|-------------------------------------------|
|--0--0--0--0-0----------0--0-0-0--0--0-0-0-|


   T     T         T     T         T
   S  S  S  S S S  S  S  S  S S S  S  S S S
|--8p=7--8p=7p3p0--8p=7--8p=7p3p0--8p=7p3p0-|
|-------------------------------------------|
|-------------------------------------------|
|-------------------------------------------|
|-------------------------------------------|
|-------------------------------------------|
|
|  T     T         T     T         T
|  S  S  S  S S S  S  S  S  S S S  S  S S S
|-12p10-12p10p8p0-12p10-12p10p8p0-12p10p8p0-|
|-------------------------------------------|
|-------------------------------------------|
|-------------------------------------------|
|-------------------------------------------|
|-------------------------------------------|
|
|-------------|          PM---------------|
|  S  S  S  S e    E     S  S S S  S  S S S
|-------------------------------------------|
|-------------------------------------------|
|-------------------------------------------|
|-------------------------------------------|
|-------------------------------------------|
|--0--0--0--0-0----------0--0-0-0--0--0-0-0-|


  (B)
   T    T        T    T        T
   S S  S S S S  S S  S S S S  S S S S
|--7p5--7p5p2p0--7p5--7p5p2p0--7p5p2p0-|
|--------------------------------------|
|--------------------------------------|
|--------------------------------------|
|--------------------------------------|
|--------------------------------------|
|
|  T    T        T    T        T
|  S S  S S S S  S S  S S S S  S S S S
|-10p8-10p8p5p0-10p8-10p8p5p0-10p8p5p0-|
|--------------------------------------|
|--------------------------------------|
|--------------------------------------|
|--------------------------------------|
|--------------------------------------|
|
|  PM-----------------------------------
|  S S  S S e    E    S S S S  S S S S
|--------------------------------------|
|--------------------------------------|
|--------------------------------------|
|--------------------------------------|
|--2-2--2-2-2---------2-2-2-2--2-2-2-2-|
|--------------------------------------|


   T    T        T    T            T
   S S  S S S S  S S  S S   S   S  S S   S   S
|--7p5--7p5p2p0--7p5--7p5p==2p==0--7p5p==2p==0---|
|------------------------------------------------|
|------------------------------------------------|
|------------------------------------------------|
|------------------------------------------------|
|------------------------------------------------|
|
|  T    T        T    T            T
|  S S  S S S S  S S  S S   S   S  S S   S   S
|-10p8-10p8p5p0-10p8-10p8p==5p==0-10p8p==5p==0---|
|------------------------------------------------|
|------------------------------------------------|
|------------------------------------------------|
|------------------------------------------------|
|------------------------------------------------|
|
|---------------|
|                     |---3---|    |---3---|
|  S S  S S e    E    E   E   E    E   E   E
|------------------------------------------------|
|------------------------------------------------|
|------------------------------------------------|
|------------------------------------------------|
|--2-2--2-2-2---------2---2---2----2---2---2-----|
|------------------------------------------------|


  (A)
   T     T         T     T         T
   S  S  S  S S S  S  S  S  S S S  S  S S S
|-10p=8-10p=8p5p0-10p=8-10p=8p5p0-10p=8p5p0-|
|-------------------------------------------|
|-------------------------------------------|
|-------------------------------------------|
|-------------------------------------------|
|-------------------------------------------|
|
|  T     T         T     T         T
|  S  S  S  S S S  S  S  S  S S S  S  S S S
|-14p12-14p12p8p0-14p12-14p12p8p0-14p12p8p0-|
|-------------------------------------------|
|-------------------------------------------|
|-------------------------------------------|
|-------------------------------------------|
|-------------------------------------------|
|
|  PM---------|          PM------------------
|  S  S  S  S e    E     S  S S S  S  S S S
|-------------------------------------------|
|-------------------------------------------|
|-------------------------------------------|
|-------------------------------------------|
|--0--0--0--0-0----------0--0-0-0--0--0-0-0-|
|-------------------------------------------|


   T     T         T     T         T
   S  S  S  S S S  S  S  S  S S S  S  S S S
|-10p=8-10p=8p5p0-10p=8-10p=8p5p0-10p=8p5p0-|
|-------------------------------------------|
|-------------------------------------------|
|-------------------------------------------|
|-------------------------------------------|
|-------------------------------------------|
|
|  T     T         T     T         T
|  S  S  S  S S S  S  S  S  S S S  S  S S S
|-14p12-14p12p8p0-14p12-14p12p8p0-14p12p8p0-|
|-------------------------------------------|
|-------------------------------------------|
|-------------------------------------------|
|-------------------------------------------|
|-------------------------------------------|
|
|-------------|          PM---------------|
|  S  S  S  S e    E     S  S S S  S  S S S
|-------------------------------------------|
|-------------------------------------------|
|-------------------------------------------|
|-------------------------------------------|
|--0--0--0--0-0----------0--0-0-0--0--0-0-0-|
|-------------------------------------------|


  (E)
   T       T             T       T             T
   S  S    S    S S S    S    S  S  S   S   S  S  S   S   S
|-12p=7---12p===7p3p0---12p===7-12p=7p==3p==0-12p=7p==3p==0-|
|-----------------------------------------------------------|
|-----------------------------------------------------------|
|-----------------------------------------------------------|
|-----------------------------------------------------------|
|-----------------------------------------------------------|
|
|  T       T             T       T             T
|  S  S    S    S S S    S    S  S  S   S   S  S  S   S   S
|-15p12---15p==12p7p0---15p==12-15p12p==7p==0-15p12p==7p==0-|
|-----------------------------------------------------------|
|-----------------------------------------------------------|
|-----------------------------------------------------------|
|-----------------------------------------------------------|
|-----------------------------------------------------------|
|
|  PM--------------------------------------------------------
|  |----3----|    |---3----|     |---3----|    |---3----|
|  E    E    E    E   E    E     E    E   E    E    E   E
|-----------------------------------------------------------|
|-----------------------------------------------------------|
|-----------------------------------------------------------|
|-----------------------------------------------------------|
|-----------------------------------------------------------|
|--0----0----0----0---0----0-----0----0---0----0----0---0---|


   T       T             T       T             T
   S  S    S    S S S    S    S  S  S   S   S  S  S   S   S
|-12p=7---12p===7p3p0---12p===7-12p=7p==3p==0-12p=7p==3p==0--|
|------------------------------------------------------------|
|------------------------------------------------------------|
|------------------------------------------------------------|
|------------------------------------------------------------|
|------------------------------------------------------------|
|
|  T       T             T       T             T
|  S  S    S    S S S    S    S  S  S   S   S  S  S   S   S
|-15p12---15p==12p7p0---15p==12-15p12p==7p==0-15p12p==7p==0--|
|------------------------------------------------------------|
|------------------------------------------------------------|
|------------------------------------------------------------|
|------------------------------------------------------------|
|------------------------------------------------------------|
|
|-------------------------------------------------------|
|  |----3----|    |---3----|     |---3----|    |---3----|
|  E    E    E    E   E    E     E    E   E    E    E   E
|------------------------------------------------------------|
|------------------------------------------------------------|
|------------------------------------------------------------|
|------------------------------------------------------------|
|------------------------------------------------------------|
|--0----0----0----0---0----0-----0----0---0----0----0---0----|


  C5
  Gtr I
   T        T                T        T                T
   |------6-------| |------6-------|  |------6------|  |------6------|
   S  S  S  S  S  S S  S  S  S  S  S  S  S  S S  S  S  S  S  S S  S  S
|-15p12p10-15p12p10p8h10h12-15p12p10-15p12p10p8h10h12-15p12p10p8h10h12-|
|----------------------------------------------------------------------|
|----------------------------------------------------------------------|
|----------------------------------------------------------------------|
|----------------------------------------------------------------------|
|----------------------------------------------------------------------|
|
| Gtr II
|           PM------|                 PM------|                PM
|  E        E       E        E        E       E        E       E
|----------------------------------------------------------------------|
|----------------------------------------------------------------------|
|----------------------------------------------------------------------|
|--5-------------------------5-------------------------5---------------|
|--3--------3-------3--------3--------3-------3--------3-------3-------|
|----------------------------------------------------------------------|


   T        T                T        T                T
   |------6-------| |------6-------|  |------6------|  |------6------|
   S  S  S  S  S  S S  S  S  S  S  S  S  S  S S  S  S  S  S  S S  S  S
|-15p12p10-15p12p10p8h10h12-15p12p10-15p12p10p8h10h12-15p12p10p8h10h12--|
|-----------------------------------------------------------------------|
|-----------------------------------------------------------------------|
|-----------------------------------------------------------------------|
|-----------------------------------------------------------------------|
|-----------------------------------------------------------------------|
|
|           PM------|                 PM------|                PM
|  E        E       E        E        E       E        E       E
|-----------------------------------------------------------------------|
|-----------------------------------------------------------------------|
|-----------------------------------------------------------------------|
|--5-------------------------5-------------------------5----------------|
|--3--------3-------3--------3--------3-------3--------3-------3--------|
|-----------------------------------------------------------------------|


  G5
   T       T              T       T              T
   |-----6------| |-----6------|  |-----6-----|  |-----6-----|
   S  S S  S  S S S S  S  S  S S  S  S S S S  S  S  S S S S  S
|-14p10p8-14p10p8p7h8h10-14p10p8-14p10p8p7h8h10-14p10p8p7h8h10-|
|--------------------------------------------------------------|
|--------------------------------------------------------------|
|--------------------------------------------------------------|
|--------------------------------------------------------------|
|--------------------------------------------------------------|
|
|          PM-----|               PM-----|              PM
|  E       E      E       E       E      E       E      E
|--------------------------------------------------------------|
|--------------------------------------------------------------|
|--------------------------------------------------------------|
|--------------------------------------------------------------|
|--5----------------------5----------------------5-------------|
|--3-------3------3-------3-------3------3-------3------3------|


   T       T              T       T              T
   |-----6------| |-----6------|  |-----6-----|  |-----6-----|
   S  S S  S  S S S S  S  S  S S  S  S S S S  S  S  S S S S  S
|-14p10p8-14p10p8p7h8h10-14p10p8-14p10p8p7h8h10-14p10p8p7h8h10--|
|---------------------------------------------------------------|
|---------------------------------------------------------------|
|---------------------------------------------------------------|
|---------------------------------------------------------------|
|---------------------------------------------------------------|
|
|          PM-----|               PM-----|              PM
|  E       E      E       E       E      E       E      E
|---------------------------------------------------------------|
|---------------------------------------------------------------|
|---------------------------------------------------------------|
|---------------------------------------------------------------|
|--5----------------------5----------------------5--------------|
|--3-------3------3-------3-------3------3-------3------3-------|


  D5
   T        T                 T        T                 T
   |------6-------|  |------6-------|  |------6-------|  |------6-------|
   S  S  S  S  S  S  S  S  S  S  S  S  S  S  S  S  S  S  S  S  S  S  S  S
|-17p14p12-17p14p12p10h12h14-17p14p12-17p14p12p10h12h14-17p14p12p10h12h14-|
|-------------------------------------------------------------------------|
|-------------------------------------------------------------------------|
|-------------------------------------------------------------------------|
|-------------------------------------------------------------------------|
|-------------------------------------------------------------------------|
|
|           PM------|                  PM------|                  PM
|  E        E        E        E        E        E        E        E
|-------------------------------------------------------------------------|
|-------------------------------------------------------------------------|
|-------------------------------------------------------------------------|
|--7--------------------------7--------------------------7----------------|
|--5--------5--------5--------5--------5--------5--------5--------5-------|
|-------------------------------------------------------------------------|


  B/D#
   T        T                 T        T                 T
   |------6-------|  |------6-------|  |------6-------|  |------6-------|
   S  S  S  S  S  S  S  S  S  S  S  S  S  S  S  S  S  S  S  S  S  S  S  S
|-19p14p12-19p14p12p11h12h14-19p14p12-19p14p12p11h12h14-19p14p12p11h12h14--|
|--------------------------------------------------------------------------|
|--------------------------------------------------------------------------|
|--------------------------------------------------------------------------|
|--------------------------------------------------------------------------|
|--------------------------------------------------------------------------|
|
|           PM------|                  PM------|                  PM
|  E        E        E        E        E        E        E        E
|--------------------------------------------------------------------------|
|--------------------------------------------------------------------------|
|--------------------------------------------------------------------------|
|--9--------------------------9--------------------------9-----------------|
|--6--------6--------6--------6--------6--------6--------6--------6--------|
|--------------------------------------------------------------------------|


  E5
       T                    T                  T                  T
   |-----5------|  |------5-------|  |-----5------|  |-----5------|
   S   S  S  S  S  S    S   S  S  S  S  S  S   S  S  S  S  S  S   S
|-17p-19p17p15h17p15------------------------------------------------|
|----------------------17p-20p17p15h17p15---------------------------|
|-----------------------------------------16p-19p16p14h16p14--------|
|------------------------------------------------------------17p-19p|
|-------------------------------------------------------------------|
|-------------------------------------------------------------------|
|
|  Q              +Q                 H
|-------------------------------------------------------------------|
|-------------------------------------------------------------------|
|-------------------------------------------------------------------|
|--9--------------(9)\----------------------------------------------|
|--7--------------(7)\----------------------------------------------|
|-------------------------------------------------------------------|


                   T                  T
   |-----5-----|   |-----5-----|  |-----5------|
   S  S  S  S  S   S  S  S  S  S  S   S  S  S  S  S  E.
|--------------------------------------------------------||
|--------------------------------------------------------||
|--------------------------------------------------------||
|-17p14h17p14--------------------------------------------||
|-------------17p-19p17p14h17p14-------------------------||
|--------------------------------17p-19p18p17p15-14-12\--||
|
|  W
|--------------------------------------------------------||
|--------------------------------------------------------||
|--------------------------------------------------------||
|--------------------------------------------------------||
|--------------------------------------------------------||
|--------------------------------------------------------||


   Breakdown II
    (G)         (F#)      (G)
    Gtr I
    W                     W
||----------------------|-------------------------|
||o---------------------|-------------------------|
||----------------------|-------------------------|
||----------------------|-------------------------|
||o---------------------|-------------------------|
||----------------------|-------------------------|
|
|   Gtr II
|   PM|   PM----------------|   PM  PM----------|
|   E E E E E E S S S S   E E E E S S S S S S S S
||----------------------|-------------------------|
||o---------------------|-------------------------|
||----------------------|-------------------------|
||------5---------------|-----5---5-4-3-----------|
||o---------------------|---------------5-4-3-----|
||--3-3---3-3-3-2-2-2-2-|-3-3---3-------------6-5-|


                        D5D#5/C5/GD5/AD#5/A#
  W                     E E E E E E E E
|---------------------|------------------||
|---------------------|-----------------o||
|---------------------|------------------||
|---------------------|-7-8-x-5-x-7-x-8--||
|---------------------|-5-6-x-3-x-5-x-6-o||
|---------------------|-5-6---3---5---6--||
|
| PM|   PM----------|
| E E E E E E S S S S   E E E E E E E E
|---------------------|------------------||
|---------------------|-----------------o||
|---------------------|------------------||
|-----5---------------|-7-8-x-5-x-7-x-8--||
|---------------------|-5-6-x-3-x-5-x-6-o||
|-3-3---3-3-3-2-2-2-2-|-5-6---3---5---6--||


 Guitar Solo II - Bittencourt
  C5/G
  Gtr I
   W                     +W
|----------------------|-------------------------------|
|----------------------|-------------------------------|
|----------------------|-------------------------------|
|--5-------------------|-(5)---------------------------|
|--3-------------------|-(3)---------------------------|
|--3-------------------|-(3)---------------------------|
|
| Gtr II
|                         ~~~
|                                  |-----5-----|
|  H        +Q    E  E    Q.    E  S  S  S  S  S  E  E
|----------------------|----------------------15h20p15-|
|-15b16----(15)--15-16-|-------------------16----------|
|----------------------|-17-------------17-------------|
|----------------------|-------------17----------------|
|----------------------|-------15h18-------------------|
|----------------------|-------------------------------|


  G5
   W                                                +W
|-------------------------------------------------|--------------------------------------|
|-------------------------------------------------|--------------------------------------|
|-------------------------------------------------|--------------------------------------|
|--5----------------------------------------------|-(5)----------------------------------|
|--5----------------------------------------------|-(5)----------------------------------|
|--3----------------------------------------------|-(3)----------------------------------|
|
|                 |--3--|           |--3--|
|  Q      +E   E  S  S  S  S  S  S  S  S  S  T  T    S   S  S  S  S  S  S  S  Q.    S  S
|-17b18--(17)-17-18p17p15-14-15-18-17p15----------|--------------------------------10-13-|
|----------------------------------------18p16p15-|-16--15-13----------------------------|
|-------------------------------------------------|-----------15-14-12-14-15-------------|
|-------------------------------------------------|--------------------------15----------|
|-------------------------------------------------|--------------------------------------|
|-------------------------------------------------|--------------------------------------|


  A#5
   W
|---------------------------------------------------------|
|---------------------------------------------------------|
|--3------------------------------------------------------|
|--3------------------------------------------------------|
|--1------------------------------------------------------|
|---------------------------------------------------------|
|
|  T     T                T           T            T
|  |-----5-----| |-----5-----|  |----5-----| |----5-----|
|  S  S  S  S  S S  S  S  S  S  S  S  S  S S S  S  S  S S
|-15p13-15p13p10p8----------------------------------------|
|------------------10h11-15p13p11p10----------------------|
|------------------------------------12p10p7h8h10-15p10p8-|
|---------------------------------------------------------|
|---------------------------------------------------------|
|---------------------------------------------------------|


  +W
|---------------------------------------|
|---------------------------------------|
|-(3)-----------------------------------|
|-(3)-----------------------------------|
|-(1)-----------------------------------|
|---------------------------------------|
|
|  T         T            T
|  |----5----|               |-3-|
|  S  S S S  S S S S S S  S  S S S Q
|---------------------------------------|
|---------------------------------------|
|---------------------------------------|
|-12p10p7h8-15p8p7----------------------|
|------------------8p7h8-15p10p8p7p5----|
|---------------------------------------|


  F5
  W
|------------------------------------------------------|
|------------------------------------------------------|
|------------------------------------------------------|
|-3----------------------------------------------------|
|-3----------------------------------------------------|
|-1----------------------------------------------------|
|
|                   |--3--|              |-----6-----|
| S  S  S  S  S  S  S  S  S  S  S  S  S  S  S  S  S  E
|------------------------12h15p12-------------12h15p12-|
|---------------------13----------13-------13----------|
|---------------10s12----------------12-12-------------|
|---------12-12----------------------------------------|
|-8-10-12----------------------------------------------|
|------------------------------------------------------|


  +W
|--------------------------------------|
|--------------------------------------|
|--------------------------------------|
|-(3)----------------------------------|
|-(3)----------------------------------|
|-(1)----------------------------------|
|
|  S  S  S  S  S  S  S  S  Q      +Q
|-17p13----------------15-18b20--(18)--|
|-------17----------17-----------------|
|----------17-15h17--------------------|
|--------------------------------------|
|--------------------------------------|
|--------------------------------------|


  (G)                   (F#)      (G)
    PM-----|   PM----------------------|         PM   PM----------------|
    E      E E E   E  E S S S S     E  E    E    E  S S S    S S S    S S
|-------------------------------|-----------------------------------------|
|-------------------------------|-----------------------------------------|
|-------------------------------|-----------------------------------------|
|------------5------------------|-----------5-------5-4-3-----------------|
|-------------------------------|----------------------------5-4-3--------|
|---3------3---3---3--3-2-2-2-2-|---3--3---------3--------------------6-5-|
|
|                                   |----3-----|    |-------3-------|
|   H             +H               +Q     Q    Q    Q      Q        Q
|-------------------------------|-----------------------------------------|
|-------------------------------|-----------------------------------------|
|-[10]b12========(10)-----------|-(10)---10---10---10-----10-------10-----|
|-------------------------------|-----------------------------------------|
|-------------------------------|-----------------------------------------|
|-------------------------------|-----------------------------------------|


  (G)                          D5/AD#5/C5/G D5/A  D#5/A#
   PM|   PM----------------|
   E E E E   E  E   S  S S S    E  E E  E E  E  E E
|----------------------------|----------------------||
|----------------------------|----------------------||
|----------------------------|----------------------||
|------5---------------------|--7--8-x--5-x--7--x-8-||
|----------------------------|--5--6-x--3-x--5--x-6-||
|--3-3---3---3--3---2--2-2-2-|--5--6----3----5----6-||
|
|  H        +Q     +Q           Q.      Q    Q.
|----------------------------|----------------------||
|----------------------------|----------------------||
|-10-------(10)r==(10)-------|-10------10---10------||
|----------------------------|----------------------||
|----------------------------|----------------------||
|----------------------------|----------------------||


 Guitar Solo III - K.Loureiro
  C5/G
   W
|-------------------------------------------------|
|-------------------------------------------------|
|-------------------------------------------------|
|--5----------------------------------------------|
|--3----------------------------------------------|
|--3----------------------------------------------|
|
|  S  S  S  S  S  S  S  S  S  S  S  S  S  S  S  S
|-------------------------------------------------|
|-------------------------------------------------|
|----------------15-------------15-17----------15-|
|----------15-17----------15-17----------15-17----|
|----15-18----------15-18-------------18----------|
|-18----------------------------------------------|


  +W
|--------------------------------------------------|
|--------------------------------------------------|
|--------------------------------------------------|
|-(5)----------------------------------------------|
|-(3)----------------------------------------------|
|-(3)----------------------------------------------|
|
|  S   S  S  S  S  S  S  S  S  S  S  S  S  S  S  S
|-----------------------15-------------15-18-------|
|-----16----------16-18----------16-18----------16-|
|-17--------15-17----------15-17-------------17----|
|--------17----------------------------------------|
|--------------------------------------------------|
|--------------------------------------------------|


  G5
   W
|-----------------------------------------|
|-----------------------------------------|
|-----------------------------------------|
|--5--------------------------------------|
|--5--------------------------------------|
|--3--------------------------------------|
|
|  S  S  S  S  Q   S  S  S  S  S  S  S  S
|----15-18-20s22--18-17-15----------------|
|-18-----------------------19-17----------|
|--------------------------------17-18-19-|
|-----------------------------------------|
|-----------------------------------------|
|-----------------------------------------|


  +W
|------------------------------------------|
|------------------------------------------|
|------------------------------------------|
|-(5)--------------------------------------|
|-(5)--------------------------------------|
|-(3)--------------------------------------|
|
|  |--3--|
|  S  S  S  S  S  S  S  S  S  Q      +Q
|------------------------------------------|
|-18h20p18-17----------------18b20--(18)---|
|-------------20-19-17---------------------|
|----------------------20-19---------------|
|------------------------------------------|
|------------------------------------------|


  A#5
   W
|-------------------------------------------------|
|-------------------------------------------------|
|--3----------------------------------------------|
|--3----------------------------------------------|
|--1----------------------------------------------|
|-------------------------------------------------|
|
|  S  S  S  S  S  S  S  S  S  S  S  S  S  S  S  S
|-18-17-16-15-14-15-16-17-15-14-13-12-14-13-------|
|-------------------------------------------14-15-|
|-------------------------------------------------|
|-------------------------------------------------|
|-------------------------------------------------|
|-------------------------------------------------|


  +W
|--------------------------------------------------------|
|--------------------------------------------------------|
|-(3)----------------------------------------------------|
|-(3)----------------------------------------------------|
|-(1)----------------------------------------------------|
|--------------------------------------------------------|
|
|                                       |------6-------|
|  S   S  S  S  S  S  S  S  S  S  S  S  S  S  S  S  S  S
|--------------------------------------------------------|
|-16--17-16-15-14----15-14-------------------------------|
|-----------------17-------17-16-15-16-17h18p17p15-------|
|--------------------------------------------------17-15-|
|--------------------------------------------------------|
|--------------------------------------------------------|


  D5
         PM---|            PM---|            PM
   E     E     E     E     E     E     E     E
|-------------------------------------------------|
|-------------------------------------------------|
|--7-----------------7-----------------7----------|
|--7-----------------7-----------------7----------|
|--5-----5-----5-----5-----5-----5-----5-----5----|
|-------------------------------------------------|
|
|  S  S  S  S  S  S  S  S  S  S  S  S  S  S  S  S
|-14p10-14p10-------14p10-14p10-------14p10-------|
|-------------13p10-------------13p10-------13p10-|
|-------------------------------------------------|
|-------------------------------------------------|
|-------------------------------------------------|
|-------------------------------------------------|


         PM---|            PM---|            PM
   E     E     E     E     E     E     E     E
|-------------------------------------------------|
|-------------------------------------------------|
|--7-----------------7-----------------7----------|
|--8-----------------8-----------------8----------|
|--5-----5-----5-----5-----5-----5-----5-----5----|
|-------------------------------------------------|
|
|  S  S  S  S  S  S  S  S  S  S  S  S  S  S  S  S
|-15p10-15p10-------15p10-15p10-------15p10-------|
|-------------13p10-------------13p10-------13p10-|
|-------------------------------------------------|
|-------------------------------------------------|
|-------------------------------------------------|
|-------------------------------------------------|


         PM---|            PM---|            PM
   E     E     E     E     E     E     E     E
|-------------------------------------------------|
|-------------------------------------------------|
|--7-----------------7-----------------7----------|
|--7-----------------7-----------------7----------|
|--5-----5-----5-----5-----5-----5-----5-----5----|
|-------------------------------------------------|
|
|  S  S  S  S  S  S  S  S  S  S  S  S  S  S  S  S
|-17p14-17p14-------17p14-17p14-------17p14-------|
|-------------15p13-------------15p13-------15p13-|
|-------------------------------------------------|
|-------------------------------------------------|
|-------------------------------------------------|
|-------------------------------------------------|


   E     E     E     E     E     E     E     E
|-------------------------------------------------||
|-------------------------------------------------||
|--------------5-----8-----5-----------5-----8----||
|--4-----7-----7----10-----7-----7-----7----10----||
|--6-----9-----------------------9----------------||
|-------------------------------------------------||
|  E     E     E     E     E     E     E     E
|
|  S  S  S  S  S  S  S  S  S  S  S  S  S  S  S  S
|-20p17-20p17-------20p17-20p17-------20p17-------||
|-------------19p15-------------19p15-------19p15-||
|-------------------------------------------------||
|-------------------------------------------------||
|-------------------------------------------------||
|-------------------------------------------------||


 Strings Interlude
   Q      Q     H             W
|--------------------------|-------------------------|
|--------------------------|-------------------------|
|--9-----------------------|-------------------------|
|--9-----------------------|-------------------------|
|--7-----------------------|-------------------------|
|--------------------------|-------------------------|
|  Q      Q     H
|
|  ~~~
|  Q.        E  H             W
|-24-----------------------|-------------------------|
|--------------------------|-------------------------|
|--------------------------|-------------------------|
|--------------------------|-------------------------|
|--------------------------|-------------------------|
|--------------------------|-------------------------|
|
| Gtr IV
|  e   e  e  e  e  e  e  e    e  e  e  e  e  e  e  e
|-19-----------19----------|-19----------19----------|
|-----17-19-20----17-19-20-|----17-19-20----17-19-20-|
|--------------------------|-------------------------|
|-----21-19-21----21-19-21-|----21-19-21----21-19-21-|
|-19-----------19----------|-19----------19----------|
|--------------------------|-------------------------|
   e   e  e  e  e  e  e  e    e  e  e  e  e  e  e  e


   W                         W
|-------------------------|-------------------------|
|-------------------------|-------------------------|
|-------------------------|-------------------------|
|-------------------------|-------------------------|
|-------------------------|-------------------------|
|-------------------------|-------------------------|
|
|  W                         W
|-------------------------|-------------------------|
|-------------------------|-------------------------|
|-------------------------|-------------------------|
|-------------------------|-------------------------|
|-------------------------|-------------------------|
|-------------------------|-------------------------|
|
|  e  e  e  e  e  e  e  e    e  e  e  e  e  e  e  e
|-20----------20----------|-20----------20----------|
|----17-17-20----17-17-20-|----17-17-20----17-17-20-|
|-------------------------|-------------------------|
|----22-21-22----22-21-22-|----22-21-22----22-21-22-|
|-18----------18----------|-18----------18----------|
|-------------------------|-------------------------|
   e  e  e  e  e  e  e  e    e  e  e  e  e  e  e  e


  Gtr IV
   e  e  e  e  e  e  e  e    e  e  e  e  e  e  e  e
|-19----------19----------|-19----------19----------|
|----17-19-20----17-19-20-|----17-19-20----17-19-20-|
|-------------------------|-------------------------|
|----21-19-21----21-19-21-|----21-19-21----21-19-21-|
|-19----------19----------|-19----------19----------|
|-------------------------|-------------------------|
|  e  e  e  e  e  e  e  e    e  e  e  e  e  e  e  e
|
| Gtr V
|  H           H             H           H
|-------------------------|-------------------------|
|-------------------------|-------------------------|
|-------------------------|-------------------------|
|--------------2----------|--4-----------5----------|
|--3----------------------|-------------------------|
|-------------------------|-------------------------|


   e  e  e  e  e  e  e  e    e  e  e  e  e  e  e  e
|-19----------17----------|-------------------------|
|----17-19-20----17-19-20-|-20-17-19-20-19-17-19-20-|
|-------------------------|-------------------------|
|-21----------19----------|-------------------------|
|----18-21-22----18-21-22-|-22-18-21-22-21-18-21-22-|
|-------------------------|-------------------------|
|  e  e  e  e  e  e  e  e    e  e  e  e  e  e  e  e
|
|  H           H             H           E  E  E  E
|-------------------------|-------------------------|
|-------------------------|-------------------------|
|-------------------------|-------------------------|
|--4-----------2----------|--0----------------------|
|-------------------------|--------------2--0--2--3-|
|-------------------------|-------------------------|


  E5
  Gtrs I, II
   Q    Q    H           W
|---------------------|-----------------------|
|---------------------|-----------------------|
|---------------------|-----------------------|
|--2------------------|-----------------------|
|--2------------------|-----------------------|
|--0------------------|-----------------------|
|
| Gtr IV
|  e E  e E  e E  e E    e E  e E  e  E  e  e
|---------------------|-----------------------|
|-17---16---17---16---|-----------------17----|
|---------------------|-19---19---19-------19-|
|---------------------|-----------------------|
|---------------------|-----------------------|
|---------------------|-----------------------|
|
| Gtr V
|  e E  e E  e E  e E    e E  e E  e  E  e  e
|-19---17---19---17---|-----------------------|
|---------------------|-19---19---19-17-20-19-|
|---------------------|-----------------------|
|---------------------|-----------------------|
|---------------------|-----------------------|
|---------------------|-----------------------|


                           N.C.
                              PM--------------|
   W                        E E  E E  E  E  E  E
|------------------------|-----------------------|
|------------------------|-----------------------|
|------------------------|-----------------------|
|------------------------|-----------------------|
|------------------------|----3--2-3--5--3--7--5-|
|------------------------|----3--2-3--5--3--7--5-|
|
|  e E  e  e  e  e  e  e    e E  e E  e  e  e  e
|---------27-17-27-------|-----------------------|
|-17---19----------19----|-17---17---17-17-19-20-|
|---------------------19-|-----------------------|
|------------------------|-----------------------|
|------------------------|-----------------------|
|------------------------|-----------------------|
|
|  e E  e  e  e  e  e  e    e E  e E  e  e  e  e
|-15---14-15-17-15-14----|-15---15---15-15-17-19-|
|---------------------15-|-----------------------|
|------------------------|-----------------------|
|------------------------|-----------------------|
|------------------------|-----------------------|
|------------------------|-----------------------|


  E5/B           E5     D/F#
   Q    H         Q      Q    Q     H
|---------------------|------------------------|
|---------------------|------------------------|
|---------------------|------------------------|
|--9------------------|------------------------|
|--7--------------2---|--5---------------------|
|--7--------------0---|--2---------------------|
|
|  e e  e e  e e  e e    e e  e  e  e  e  e  e
|-15--------15--------|------------14----------|
|------16--------16---|-15---15-17----17-15----|
|---------------------|---------------------16-|
|---------------------|------------------------|
|---------------------|------------------------|
|---------------------|------------------------|
|
|  e E  e E  e E  e E    e E  e  e  e  e  e  e
|-19---17---19---17---|------------17----------|
|---------------------|-19---19-20----20-19----|
|---------------------|---------------------19-|
|---------------------|------------------------|
|---------------------|------------------------|
|---------------------|------------------------|


  C5                       N.C.
                              PM--------------|
   Q    Q     H             E E  E E  E  E  E  E
|------------------------|-----------------------|
|------------------------|-----------------------|
|------------------------|-----------------------|
|--5---------------------|-----------------------|
|--3---------------------|----3--2-3--5--3--7--5-|
|------------------------|----3--2-3--5--3--7--5-|
|
|  e E  e  e  e  e  e  e    e E  e E  e  e  e  e
|------------14----------|-----------------14-15-|
|------15-17----17-15----|-17---17---17-17-------|
|-17------------------16-|-----------------------|
|------------------------|-----------------------|
|------------------------|-----------------------|
|------------------------|-----------------------|
|
|  e E  e  e  e  e  e  e    e e  e e  e  e  e  e
|------------17----------|-----------------17-19-|
|-17---19-20----20-19----|-20---20---20-20-------|
|---------------------19-|-----------------------|
|------------------------|-----------------------|
|------------------------|-----------------------|
|------------------------|-----------------------|


  E5/B            E5     D/F#
   H.              Q      W
|----------------------|-----------------------|
|----------------------|-----------------------|
|----------------------|-----------------------|
|--9---------------2---|--4--------------------|
|--7---------------2---|--5--------------------|
|--7---------------0---|--2--------------------|
|
|  e  e  e e  e e  e e    e e  e e  e  e  e  e
|----------------------|-----------------------|
|-20---------20--------|-----------------17----|
|-------20--------20---|-19---19---19-------19-|
|----------------------|-----------------------|
|----------------------|-----------------------|
|----------------------|-----------------------|
|
|  e  E  e E  e E  e E    e e  e e  e  e  e  e
|-19----17---19---17---|-----------------------|
|----------------------|-19---19---19-17-20-19-|
|----------------------|-----------------------|
|----------------------|-----------------------|
|----------------------|-----------------------|
|----------------------|-----------------------|


      B5/F#   F#5           (C)               (D)
                             PM--------------------------------|
  +E  E  E  E  H             S S S S  S S S S  S S S S  S S  S S
|-------------------------|---------------------------------------|
|-------------------------|---------------------------------------|
|-------------------------|---------------------------------------|
|-(4)-4-----4--4----------|---------------------------------------|
|-(5)-2-----2--4----------|--3-3-3-3--3-3-3-3--5-5-5-5--5-5--5-5--|
|-(2)-2-----2--2----------|---------------------------------------|
|
|  e  e  e  e  e  e  e  e    e   e    e   e    e   e    e    e
|-------------------------|---------------------------------------|
|-16----16-17-19-17-16----|-17-------17-------17-------19---20----|
|----------------------16-|---------------------------------------|
|-------------------------|---------------------------------------|
|-------------------------|---------------------------------------|
|-------------------------|---------------------------------------|
|
|  e  e  e  e  e  e  e  e    e   e    e   e    e   e    e    e
|-------------17----------|----------------------------17---19----|
|-19----19-20----20-19-15-|-20-------20-------20------------------|
|-------------------------|---------------------------------------|
|-------------------------|---------------------------------------|
|-------------------------|---------------------------------------|
|-------------------------|---------------------------------------|


  (G)                                   (D)
   PM------------------------------------------------------------------------
   S S S S  S S S S  S S S S  S S S S    S S S S  S S S S  S S S S  S S S S
|-------------------------------------|-------------------------------------|
|-------------------------------------|-------------------------------------|
|-------------------------------------|-------------------------------------|
|-------------------------------------|-------------------------------------|
|-------------------------------------|--5-5-5-5--5-5-5-5--5-5-5-5--5-5-5-5-|
|--3-3-3-3--3-3-3-3--3-3-3-3--3-3-3-3-|-------------------------------------|
|
|  e   e    e   e    e   e    e   e      e   e    e   e    e   e    e   e
|-------------------------------------|-------------------------------------|
|-20-------19-------20-------19-------|-------------------------------------|
|-------------------------------------|-19-------19-------19-------19-------|
|-------------------------------------|-------------------------------------|
|-------------------------------------|-------------------------------------|
|-------------------------------------|-------------------------------------|
|
|  e   E    e   E    e   E    e   E      e   e    e   e    e   e    e   e
|-19-------17-------19-------17-------|-------------------------------------|
|-------------------------------------|-19-------19-------19-------19-------|
|-------------------------------------|-------------------------------------|
|-------------------------------------|-------------------------------------|
|-------------------------------------|-------------------------------------|
|-------------------------------------|-------------------------------------|


  (C)                                       (E)
 -------------------------------------------------------------------------------|
   S S  S S  S S  S S  S S  S S  S S  S S    S S S S  S S S S  S S  S S  S S  S S
|-----------------------------------------|------------------------------------------|
|-----------------------------------------|------------------------------------------|
|-----------------------------------------|------------------------------------------|
|-----------------------------------------|------------------------------------------|
|--3-3--3-3--3-3--3-3--3-3--3-3--3-3--3-3-|------------------------------------------|
|-----------------------------------------|--0-0-0-0--0-0-0-0--0-0--0-0--0-0--0-0----|
|
|  e    e    e    e    e    e    e    e      e   e    e   e    e    e    e    e
|-----------------------------------------|------------------------------------------|
|-17--------15---17---19---17-------------|-17-------17-------17--------17---19------|
|------17-----------------------19---16---|------------------------16----------------|
|-----------------------------------------|------------------------------------------|
|-----------------------------------------|------------------------------------------|
|-----------------------------------------|------------------------------------------|
|
|  e    e    e    e    e    e    e    e      e   e    e   e    e    e    e    e
|---------------------17------------------|----------------------------------17------|
|-20---17---19---20--------20---19--------|-20-------20-------20---19---20-----------|
|------------------------------------19---|------------------------------------------|
|-----------------------------------------|------------------------------------------|
|-----------------------------------------|------------------------------------------|
|-----------------------------------------|------------------------------------------|


  (G)                                   (D)
   PM------------------------------------------------------------------------
   S S S S  S S S S  S S S S  S S S S    S S S S  S S S S  S S S S  S S S S
|-------------------------------------|-------------------------------------|
|-------------------------------------|-------------------------------------|
|-------------------------------------|-------------------------------------|
|-------------------------------------|-------------------------------------|
|-------------------------------------|--5-5-5-5--5-5-5-5--5-5-5-5--5-5-5-5-|
|--3-3-3-3--3-3-3-3--3-3-3-3--3-3-3-3-|-------------------------------------|
|
|  e   e    e   e    e   e    e   e      e   e    e   e    e   e    e   e
|-------------------------------------|-------------------------------------|
|-20-------19-------20-------19-------|-------------------------------------|
|-------------------------------------|-19-------19-------19-------19-------|
|-------------------------------------|-------------------------------------|
|-------------------------------------|-------------------------------------|
|-------------------------------------|-------------------------------------|
|
|  e   E    e   E    e   E    e   E      e   e    e   e    e   e    e   e
|-19-------17-------19-------17-------|-------------------------------------|
|-------------------------------------|-19-------19-------19-------19-------|
|-------------------------------------|-------------------------------------|
|-------------------------------------|-------------------------------------|
|-------------------------------------|-------------------------------------|
|-------------------------------------|-------------------------------------|


  (B)                                   (C)                 (D)
 -----------------------------------------------------------------------------|
   S S S S  S S S S  S S S S  S S S S    S S  S S  S S  S S  S S  S S  S S  S S
|-------------------------------------|--------------------------------------------||
|-------------------------------------|--------------------------------------------||
|-------------------------------------|--------------------------------------------||
|-------------------------------------|--------------------------------------------||
|--2-2-2-2--2-2-2-2--2-2-2-2--2-2-2-2-|--3-3--3-3--3-3--3-3--5-5--5-5--5-5--5-5----||
|-------------------------------------|--------------------------------------------||
|
|  Q        e   e    e   e    e   e      e    e    e    e    e    e    e    e
|-------------------------------------|--------------------------------------------||
|-------------------------------------|-17---17---17---17---19---19---19---19------||
|----------19-------19-------19-------|--------------------------------------------||
|-------------------------------------|--------------------------------------------||
|-------------------------------------|--------------------------------------------||
|-------------------------------------|--------------------------------------------||
|
|  e   e    e   e    e   e    e   e      e    e    e    e    e    e    e    e
|-------------------------------------|---------------------17---17---17---17------||
|-19-------19-------19-------19-------|-20---20---20---20--------------------------||
|-------------------------------------|--------------------------------------------||
|-------------------------------------|--------------------------------------------||
|-------------------------------------|--------------------------------------------||
|-------------------------------------|--------------------------------------------||


 Bridge III
  A5                                  G5          E5
  Gtrs I, II
   W           +W                      W            W
|-----------|-----------------------|-----------|---------------------------|
|-----------|-----------------------|-----------|---------------------------|
|-----------|-----------------------|-----------|---------------------------|
|--7--------|--(7)------------------|--5--------|---2-----------------------|
|--7--------|--(7)------------------|--5--------|---2-----------------------|
|--5--------|--(5)------------------|--3--------|---0-----------------------|
|
|  W           +H      +E   E  E  E    W           +E   E  E  E  E  E  E  E
|-----------|--------------19-17-19-|-15--------|-(15)-20-19----------17-19-|
|-17--------|-(17)----(17)----------|-----------|------------17-17-17-------|
|-----------|--------------16-14-16-|-12--------|-(12)-17-16----------14-16-|
|-14--------|-(14)----(14)----------|-----------|------------14-14-14-------|
|-----------|-----------------------|-----------|---------------------------|
|-----------|-----------------------|-----------|---------------------------|


  B5                           (C)
                                PM--------------------------------------
   W            +W              S S  S S  S S  S S  S S  S S  S S  S S
|-------------|--------------|-----------------------------------------|
|-------------|--------------|-----------------------------------------|
|-------------|--------------|-----------------------------------------|
|--4----------|-(4)----------|-----------------------------------------|
|--2----------|-(2)----------|--3-3--3-3--3-3--3-3--3-3--3-3--3-3--3-3-|
|-------------|--------------|-----------------------------------------|
|
|  H     H       H      H       E    E    E    E    E    E    E    E
|-17----19----|-17-----14----|-19---20---19--------20--------19---20---|
|-------------|--------------|----------------20--------20-------------|
|-14----16----|-14-----11----|-16---17---16--------17--------16---17---|
|-------------|--------------|----------------17--------17-------------|
|-------------|--------------|-----------------------------------------|
|-------------|--------------|-----------------------------------------|


                              D.S. al Coda
  (D)
 ---------------------------------------|
   S S  S S  S S  S S  S S  S S  S S  S S
|--------------------------------------------||
|--------------------------------------------||
|--------------------------------------------||
|--------------------------------------------||
|--5-5--5-5--5-5--5-5--5-5--5-5--5-5--5-5----||
|--------------------------------------------||
|
|  E    E    E    E    E    E    E    E
|-22-----------------------20---22---26------||
|------17---19---20---22---------------------||
|-19-----------------------17---19---23------||
|------14---16---17---19---------------------||
|--------------------------------------------||
|--------------------------------------------||


 Outro Solo
  &
  N.C.
  Gtr I
   S S  S  S S  S S  S  S S  S  S  S  S  S  S    S  S  S  S  S  S  S  S  S  S  S  S  S  S  S  S
|---------------------------------------------|-------------------------------------------------|
|---------------------------------------------|-------------------------------------------------|
|---------------------------------------------|-------------------------------------------------|
|-----------------------7-------7-----7--9----|--7--9--7--9-10--7--9-10--9-10-12--9-10-12-10-12-|
|--7-9-10--7-9-10-9-10----9-10----10-------10-|-------------------------------------------------|
|---------------------------------------------|-------------------------------------------------|
|
| Gtr II
|  S S  S  S S  S S  S  S S  S  S  S  S  S  S    S  S  S  S  S  S  S  S  S  S  S  S  S  S  S  S
|---------------------------------------------|-------------------------------------------------|
|---------------------------------------------|-------------------------------------------------|
|---------------------------------------------|--------------9--------------9-11-----9-11--9-11-|
|----7--9----7--9-7--9-10-7--9-10--9-10-12--9-|-10-12-10-12----10-12-10-12-------12-------------|
|-10------10----------------------------------|-------------------------------------------------|
|---------------------------------------------|-------------------------------------------------|


   S  S  S  S  S  S  S  S  S  S  S  S  S  S  S  S
|-------------------------------------------------|
|-------------------------------------------------|
|--9--------9-----9-11-----9-11--9-11-12--9-11-12-|
|----10-12----12-------12-------------------------|
|-------------------------------------------------|
|-------------------------------------------------|
|
|  S  S  S  S  S  S  S  S  S  S  S  S  S  S  S  S
|-------------------------------------------------|
|-------------------10-------10----10-12----10-12-|
|-12--9-11-12-11-12----11-12----12-------12-------|
|-------------------------------------------------|
|-------------------------------------------------|
|-------------------------------------------------|


                             H.=H
  A5                           G5
   H     H       H      H       H     H       H      H
|-------------|--------------|-------------|--------------||
|-15----17----|-15-----------|-------------|--------------||
|-------------|--------16----|-16----17----|-16-----------||
|-------------|--------------|-------------|--------17----||
|-------------|--------------|-------------|--------------||
|-------------|--------------|-------------|--------------||
|
|  H     H       H      H       H     H       H      H
|-------------|--------------|-------------|--------------||
|-------------|--------------|-15----17----|-15-----------||
|-16----17----|-16-----------|-------------|--------16----||
|-------------|--------17----|-------------|--------------||
|-------------|--------------|-------------|--------------||
|-------------|--------------|-------------|--------------||
|
| Gtr III
|  W            +W              W            +W
|-------------|--------------|-------------|--------------||
|-------------|--------------|-------------|--------------||
|-------------|--------------|-------------|--------------||
|--7----------|-(7)----------|--5----------|-(5)----------||
|--7----------|-(7)----------|--5----------|-(5)----------||
|--5----------|-(5)----------|--3----------|-(3)----------||


  F5
 3/4
   H.         H.         H.
|----------|----------|----------||
|----------|----------|----------||
|-16-------|-17-------|-16-------||
|----------|----------|----------||
|----------|----------|----------||
|----------|----------|----------||
|
|  H.         H.         H.
|----------|----------|----------||
|-15-------|-17-------|-15-------||
|----------|----------|----------||
|----------|----------|----------||
|----------|----------|----------||
|----------|----------|----------||
|
|  H.        +H.        +H.
|----------|----------|----------||
|----------|----------|----------||
|----------|----------|----------||
|--3-------|-(3)------|-(3)------||
|--3-------|-(3)------|-(3)------||
|--1-------|-(1)------|-(1)------||


                                  E5
 4/4
   E      +E   +E   +E   Q   Q     Q.    E H
|-------------------------------|-----------------|
|-------------------------------|-----------------|
|-16b18==(16)-(16)r(16)-14--12--|-----------------|
|-------------------------------|-14\-------------|
|-------------------------------|-----------------|
|-------------------------------|-----------------|
|
|  E      +E   +E   +E   Q   Q     Q.    E H
|-------------------------------|-----------------|
|-15b17==(15)-(15)r(15)-13--12--|-----------------|
|-------------------------------|-12\-------------|
|-------------------------------|-----------------|
|-------------------------------|-----------------|
|-------------------------------|-----------------|
|
|                                  PM---------|
| +W                               E  Q  E Q  E E
|-------------------------------|-----------------|
|-------------------------------|-----------------|
|-------------------------------|-----------------|
|-(3)---------------------------|-----------------|
|-(3)---------------------------|--2-----2----2---|
|-(1)---------------------------|--0-----0----0---|


  In Tempo Q=180
  H       S  S S  S  S S  S  S    E E Q  H
|------------------------------|--------------*|
|------------------------------|--------------*|
|--------12-11-9---------------|--------------*|
|----------------12-10-9-------|--------------*|
|------------------------12-10-|--------------*|
|------------------------------|-12-----------*|
|
| H       S  S S  S  S S  S  S    E E Q  H
|------------------------------|--------------*|
|--------12-10-8---------------|--------------*|
|----------------11--9-7-------|--------------*|
|------------------------10--9-|--------------*|
|------------------------------|-10-----------*|
|------------------------------|--------------*|
|
|   PM                            PM
| E E Q   H                       E E Q  H
|------------------------------|--------------*|
|------------------------------|--------------*|
|------------------------------|--------------*|
|------------------------------|--------------*|
|---2--------------------------|--2-----------*|
|---0--------------------------|--0-----------*|



Duration Legend
---------------
W - whole; H - half; Q - quarter; E - 8th; S - 16th; T - 32nd; X - 64th; a - acciaccatura
+ - note tied to previous; . - note dotted; .. - note double dotted
Uncapitalized letters represent notes that are staccato (1/2 duration)
Irregular groupings are notated above the duration line
Duration letters will always appear directly above the note/fret number it represents the
duration for.  Duration letters with no fret number below them represent rests.  Multi-
bar rests are notated in the form Wxn, where n is the number of bars to rest for.  Low
melody durations appear below the staff

Tablature Legend
----------------
 h   - hammer-on
 p   - pull-off
 b   - bend
 pb  - pre-bend
 r   - bend release (if no number after the r, then release immediately)
 /\  - slide into or out of (from/to "nowhere")
 s   - legato slide
 S   - shift slide
 - natural harmonic
[n]  - artificial harmonic
n(n) - tapped harmonic
 ~   - vibrato
 tr  - trill
 T   - tap
 TP  - trem. picking
 PM  - palm muting
\n/  - tremolo bar dip; n = amount to dip
 \n  - tremolo bar down
 n/  - tremolo bar up
/n\  - tremolo bar inverted dip
 =   - hold bend; also acts as connecting device for hammers/pulls
 <> - volume swell (louder/softer)
 x   - on rhythm slash represents muted slash
 o   - on rhythm slash represents single note slash

Misc Legend
-----------
 |  - bar
||  - double bar
||o - repeat start
o|| - repeat end
*|  - double bar (ending)
 :  - bar (freetime)
 $  - Segno
 &  - Coda
Tempo markers -  = BPM(8/16=s8/s16), where s8 = swing 8ths, s16 = swing 16ths


            
            
Suggest correction
Creating personal tab
Creating personal tab
You can edit any tab online and save it as your Personal.

You can edit, replace or remove any tab part or add personal notes – all changes will be seen only by you.

Personal tabs can be accessed anytime from any device, even offline.
Learn more »
Give kudos to tab author, rate the tab!
1 2 3 4 5
comments
print report bad tab
guest
You may want to rate the tab now too:
select rating
Wanna post a correction for this tab? Suggest correction