Oops, an error
Loading. Please wait.

She Said bass

version 1
version 1

Whole song

Interactive

324 views 1 this week
no commentswrite comment
1 2 3 4 5
2 more votes to show rating
add to favorites
×
Save as Personal and add changes to this tab that will be seen only by you. Learn more ›
×
You can save this tab as Personal to edit and correct it or add notes. All changes will be seen only by you. Learn more »
launch autoscroll
font size
0
reset
guitar tuner
edit
Autoscroll
slow
fast
+/-
esc
set tempo
stop
ANGRY AMPUTEES - SHE SAID...
SLUT BOMB: 2003
TABBED BY: JOSH HUGHFF
TUNING: STANDARD E.A.D.G


INTRO: X1

G:|------------------|
D:|------------------|
A:|------------------|
E:|5--------5--------|

VERSE PT 1: X1

G:|----------------------------------------------------------------|
D:|----------------------------------------------------------------|
A:|----------------5-5-5-5-5-5-5-5---------------------------------|
E:|2-2-2-2-2-2-2-2-----------------5-5-5-5-5-5-5-5-5-5-5-5-5-5-5-5-|

VERSE P2: X4

G:|----------------|
D:|----------------|
A:|----------------|
E:|5-5-5-5-5-5-5-5-|

VERSE PT 1: X1

G:|----------------------------------------------------------------|
D:|----------------------------------------------------------------|
A:|----------------5-5-5-5-5-5-5-5---------------------------------|
E:|2-2-2-2-2-2-2-2-----------------5-5-5-5-5-5-5-5-5-5-5-5-5-5-5-5-|

CHORUS: X2

G:|----------------------------------------------------------------|
D:|----------------------------------------------------------------|
A:|----------------5-5-5-5-5-5-5-5---------------------------------|
E:|2-2-2-2-2-2-2-2-----------------5-5-5-5-5-5-5-5-5-5-5-5-5-5-5-5-|

VERSE PT 2: X4

G:|----------------|
D:|7-7-7-7-7-7-7-7-|
A:|----------------|
E:|----------------|


VERSE PT 1: X2

G:|----------------------------------------------------------------|
D:|----------------------------------------------------------------|
A:|----------------5-5-5-5-5-5-5-5---------------------------------|
E:|2-2-2-2-2-2-2-2-----------------5-5-5-5-5-5-5-5-5-5-5-5-5-5-5-5-|

CHORUS: X1

G:|----------------------------------------------------------------|
D:|----------------------------------------------------------------|
A:|----------------5-5-5-5-5-5-5-5---------------------------------|
E:|2-2-2-2-2-2-2-2-----------------5-5-5-5-5-5-5-5-5-5-5-5-5-5-5-5-|

CHORUS: 2ND TIME

G:|--------------------7-|
D:|------------------7---|
A:|----------------5-----|
E:|2-2-2-2-2-2-2-2-------|

ENDING: X4

G:|-----------------------------|
D:|-----------------------------|
A:|--------------------5--5-5-5-|
E:|5-5-5-5-5-5-5-5-2-2----------|

END WITH:

G:|----|
D:|----|
A:|----|
E:|5-5-|

IV TABBED THIS OUT THE SIMPLIST WAY, SO ALL YOU HAVE TO DO IS FIND THE STRUMMING PATTERN 
SORRY, IT TAKES TO LONG FOR THAT, SO JUST FOLLOW THE TAB AND ENJOY. THANK YOU TONY 
UNDERGROUND!

RED ARMY PUNX

http://www.myspace.com/redarmyofficial

            
            
Suggest correction
Creating personal tab
Creating personal tab
You can edit any tab online and save it as your Personal.

You can edit, replace or remove any tab part or add personal notes – all changes will be seen only by you.

Personal tabs can be accessed anytime from any device, even offline.
Learn more »
Give kudos to tab author, rate the tab!
1 2 3 4 5
comments
print report bad tab
guest
Wanna post a correction for this tab? Suggest correction