Oops, an error
Loading. Please wait.

Browntown Burning Down Tab

395 views 1 this week
no commentswrite comment
1 2 3 4 5
please rate
add to favorites
launch autoscroll
font size
0
reset
how to read this tab
guitar tuner
Autoscroll
slow
fast
+/-
esc
set tempo
stop
Help us to improve Ultimate-Guitar.com Take our survey!
×
Difficulty
Tuning
novice
C F A# D# G C
Angry Aryans - Browntown burning down

TUNE 2 WHOLE STEPS DOWN

  INTRO x4
C |-----------------------------------------------------------------------|
G |-----------------------------------------------------------------------|
Eb|-----------------------------------------------------------------------|
Bb|-----------------------------------------------------------------------|
F |---2-2-2-2--8-8/7--10-10-10-10--13-13/12-------------------------------|
C |---0-0-0-0--6-6/5--8--8--8--8---11-11/10-------------------------------|

  BREAK
C |-----------------------------------------------------------------------|
G |-----------------------------------------------------------------------|
Eb|-HOLD------------------------------------------------------------------|
Bb|---2-------------------------------------------------------------------|
F |---2-------------------------------------------------------------------|
C |---0-------------------------------------------------------------------|

  VERSE RIFF x6
C |-----------------------------------------------------------------------|
G |-----------------------------------------------------------------------|
Eb|-----------------------------------------------------------------------|
Bb|-------------------------------------HALF------------------------------|
F |---2-2-2-2----------8-8-8-8/7-7-7-7--BEND------------------------------|
C |---0-0-0-0-00000000-6-6-6-6/5-5-5-5--5b6-3-----------------------------|
              PMPMPMPM

  CHORUS x2
C |-----------------------------------------------------------------------|
G |-----------------------------------------------------------------------|
Eb|-----------------------------------------------------------------------|
Bb|--2--2-----------------------------------------------------------------|
F |--2--2------7/8\7-5--10101010------------------------------------------|
C |--0--0-0-0--5/6\5-3--8-8-8-8--5/6\3------------------------------------|

  VERSE RIFF x2
C |-----------------------------------------------------------------------|
G |-----------------------------------------------------------------------|
Eb|-----------------------------------------------------------------------|
Bb|-------------------------------------HALF------------------------------|
F |---2-2-2-2----------8-8-8-8/7-7-7-7--BEND------------------------------|
C |---0-0-0-0-00000000-6-6-6-6/5-5-5-5--5b6-3-----------------------------|
              PMPMPMPM

  2ND BREAK
C |-----------------------------------------------------------------------|
G |-----------------------------------------------------------------------|
Eb|-----------------------------------------------------------------------|
Bb|---2----------PAUSE-FOR----SLIDE---------------------------------------|
F |---2-----------A-SECOND----DOWN----------------------------------------|
C |---0------------------------/12----------------------------------------|
     PM



  VERSE RIFF x4
C |-----------------------------------------------------------------------|
G |-----------------------------------------------------------------------|
Eb|-----------------------------------------------------------------------|
Bb|-------------------------------------HALF------------------------------|
F |---2-2-2-2----------8-8-8-8/7-7-7-7--BEND------------------------------|
C |---0-0-0-0-00000000-6-6-6-6/5-5-5-5--5b6-3-----------------------------|
              PMPMPMPM


  CHORUS x2
C |-----------------------------------------------------------------------|
G |-----------------------------------------------------------------------|
Eb|-----------------------------------------------------------------------|
Bb|--2--2-----------------------------------------------------------------|
F |--2--2------7/8\7-5--10101010------------------------------------------|
C |--0--0-0-0--5/6\5-3--8-8-8-8--5/6\3------------------------------------|


  OUTRO RIFF x4
C |-----------------------------------------------------------------------|
G |-----------------------------------------------------------------------|
Eb|-----------------------------------------------------------------------|
Bb|-----------------------------------------------------------------------|
F |-2-2-2-2--888-7/8\5--10101010-9-9--7/8\5-------------------------------|
C |-0-0-0-0--666-5/6\3--8-8-8-8--7-7--5/6\3-------------------------------|

   END
C |-----------------------------------------------------------------------|
G |-----------------------------------------------------------------------|
Eb|-----------------------------------------------------------------------|
Bb|--2--------------------------------------------------------------------|
F |--2--------------------------------------------------------------------|
C |--0--------------------------------------------------------------------|
     PM
comments
We did not receive enough feedback on this tab! Please rate:
print report bad tab
1 2 3 4 5
I want to post or [tab]
guest
You may want to rate the tab now too:
select rating
Please do not post tabs as comments. Select "correction" instead!