Oops, an error
Loading. Please wait.

Get Off The Air Bass Tab

68 views 1 this week
no commentswrite comment
1 2 3 4 5
3 more votes to show rating
add to favorites
launch autoscroll
font size
0
reset
guitar tuner
Autoscroll
slow
fast
+/-
esc
set tempo
stop
Help us to improve Ultimate-Guitar.com Take our survey!
×
Difficulty
novice
I tabbed this from a guitar tab, it could possibly be wrong. 
I played along, and it sounds pretty good though.


[Main riff]
G|---------------------------------------------------------|
D|---------------------------------------------------------|
A|--------10--10------10--10-------------------------------|
E|--10--10------10--10------8---8---8---8---8---8---8---8--|

[Pre-chorus]
G|---------------------------------------------------------|
D|---------------------------------------------------------|
A|--8---8---8---8------------------------------------------|
E|-----------------8---8---8---8---3--3--3--3--5--5--5--5--|

G|----------------------------------------------|
D|----------------------------------------------|
A|--8---8---8---8-------------------------------|
E|------------------8---8---8---8---3--3--3--3--|

---------------------------|
---------------------------|
---------------------------|
--7--7--7--7--7--7--7--7---|

[Chorus]
G|--------------------------------------------------|
D|--------------------------------------------------|
A|--------------------------------------------------|
E|--3--3--3--3--5--5--5--5--3--3--3--3--7--7--7--7--|

G|--------------------------------------------------|
D|--------------------------------------------------|
A|--------------------------------------------------|
E|--3--3--3--3--5--5--5--5--3--3--3--3--7-----7-----|

Ben<3
Suggest correction
Give kudos to tab author, rate the tab!
1 2 3 4 5
comments
print report bad tab
guest
You may want to rate the tab now too:
select rating
Wanna post a correction for this tab? Suggest correction