Oops, an error
Loading. Please wait.

Haizmans Brain Is Calling Tab

350 views 1 this week
no commentswrite comment
1 2 3 4 5
3 more votes to show rating
add to favorites
launch autoscroll
font size
0
reset
how to read this tab
guitar tuner
Autoscroll
slow
fast
+/-
esc
set tempo
stop
Help us to improve Ultimate-Guitar.com Take our survey!
×
Author
Band: Angry Samoans
Song: Haizman’s Brain is Calling
Album: Back from Samoa
Year: 1982

e|-7-----------7---|----------------|
B|-7-----------7---|9-----------9---|
G|-8-----------8---|9-----------9---|
D|-9-----------9---|9-----------9---|
A|-9-----------9---|7-----------7---|
E|-7-----------7---|----------------|

e|-----------------|5-----------5---|
B|-7-----------7---|5-----------5---|
G|-7-----------7---|6-----------6---|
D|-7-----------7---|7-----------7---|
A|-5-----------5---|7-----------7---|
E|-----------------|5-----------5---|

e|-7-7-7-7-7-7-7-7-|----------------|
B|-7-7-7-7-7-7-7-7-|9-9-9-9-9-9-9-9-|
G|-8-8-8-8-8-8-8-8-|9-9-9-9-9-9-9-9-|
D|-9-9-9-9-9-9-9-9-|9-9-9-9-9-9-9-9-|
A|-9-9-9-9-9-9-9-9-|7-7-7-7-7-7-7-7-|
E|-7-7-7-7-7-7-7-7-|----------------|

e|-----------------|5-5-5-5-5-5-5-5-|
B|-7-7-7-7-7-7-7-7-|5-5-5-5-5-5-5-5-|
G|-7-7-7-7-7-7-7-7-|6-6-6-6-6-6-6-6-|
D|-7-7-7-7-7-7-7-7-|7-7-7-7-7-7-7-7-|
A|-5-5-5-5-5-5-5-5-|7-7-7-7-7-7-7-7-|
E|-----------------|5-5-5-5-5-5-5-5-|

e||--7---------7-----|----------------|
B||--7---------7-----|7---------7-----|
G||*-8---------8-----|7---------7-----|
D||*-9---------9-----|7---------7-----|
A||--9---------9-----|5---------5-----|
E||--7---------7-----|----------------|

e|-5---------5-----|-----------------||
B|-5---------5-----|9---------9------||
G|-6---------6-----|9---------9-----*||
D|-7---------7-----|9---------9-----*||
A|-7---------7-----|7---------7------||
E|-5---------5-----|-----------------||

Three steps and a shot of light
Puss is dripping from my head
e||--7---------7-----|----------------|
B||--7---------7-----|7---------7-----|
G||*-8---------8-----|7---------7-----|
D||*-9---------9-----|7---------7-----|
A||--9---------9-----|5---------5-----|
E||--7---------7-----|----------------|
I see a blinding flash
I'm lying on my back
e|-5---------5-----|-----------------||
B|-5---------5-----|9---------9------||
G|-6---------6-----|9---------9-----*||
D|-7---------7-----|9---------9-----*||
A|-7---------7-----|7---------7------||
E|-5---------5-----|-----------------||

Haizman's brain is calling
It only wants to step inside
e||--7-----------7---|----------------|
B||--7-----------7---|9-----------9---|
G||*-8-----------8---|9-----------9---|
D||*-9-----------9---|9-----------9---|
A||--9-----------9---|7-----------7---|
E||--7-----------7---|----------------|
It's knocking at your door
Just a little more
e|-----------------|5-----------5----||
B|-7-----------7---|5-----------5----||
G|-7-----------7---|6-----------6---*||
D|-7-----------7---|7-----------7---*||
A|-5-----------5---|7-----------7----||
E|-----------------|5-----------5----||


X4
e||------------------|----------------|
B||------------------|----------------|
G||*-9-9-9-9-9-9-9-9-|7-7-7-7-7-7-7-7-|
D||*-9-9-9-9-9-9-9-9-|7-7-7-7-7-7-7-7-|
A||--7-7-7-7-7-7-7-7-|5-5-5-5-5-5-5-5-|
E||------------------|----------------|

e|-------------------------|
B|-------------------------|
G|-11-11-11-11-11-11-11-11-|
D|-11-11-11-11-11-11-11-11-|
A|-9--9--9--9--9--9--9--9--|
E|-------------------------|

e|--------------------------||
B|--------------------------||
G|-11-11-11-11-11-11-11-11-*||
D|-11-11-11-11-11-11-11-11-*||
A|-9--9--9--9--9--9--9--9---||
E|--------------------------||


e|-7-----------7---|----------------|
B|-7-----------7---|9-----------9---|
G|-8-----------8---|9-----------9---|
D|-9-----------9---|9-----------9---|
A|-9-----------9---|7-----------7---|
E|-7-----------7---|----------------|

e|-----------------|5-----------5---|
B|-7-----------7---|5-----------5---|
G|-7-----------7---|6-----------6---|
D|-7-----------7---|7-----------7---|
A|-5-----------5---|7-----------7---|
E|-----------------|5-----------5---|

e|-7-7-7-7-7-7-7-7-|----------------|
B|-7-7-7-7-7-7-7-7-|9-9-9-9-9-9-9-9-|
G|-8-8-8-8-8-8-8-8-|9-9-9-9-9-9-9-9-|
D|-9-9-9-9-9-9-9-9-|9-9-9-9-9-9-9-9-|
A|-9-9-9-9-9-9-9-9-|7-7-7-7-7-7-7-7-|
E|-7-7-7-7-7-7-7-7-|----------------|

e|-----------------|5-5-5-5-5-5-5-5-|
B|-7-7-7-7-7-7-7-7-|5-5-5-5-5-5-5-5-|
G|-7-7-7-7-7-7-7-7-|6-6-6-6-6-6-6-6-|
D|-7-7-7-7-7-7-7-7-|7-7-7-7-7-7-7-7-|
A|-5-5-5-5-5-5-5-5-|7-7-7-7-7-7-7-7-|
E|-----------------|5-5-5-5-5-5-5-5-|

e||--7---------7-----|----------------|
B||--7---------7-----|7---------7-----|
G||*-8---------8-----|7---------7-----|
D||*-9---------9-----|7---------7-----|
A||--9---------9-----|5---------5-----|
E||--7---------7-----|----------------|
				Oh my God

e|-5---------5-----|-----------------||
B|-5---------5-----|9---------9------||
G|-6---------6-----|9---------9-----*||
D|-7---------7-----|9---------9-----*||
A|-7---------7-----|7---------7------||
E|-5---------5-----|-----------------||

   Am I dead or living, yeah
   I hear the sound, the sound of Haizman
e||--7---------7-----|----------------|
B||--7---------7-----|7---------7-----|
G||*-8---------8-----|7---------7-----|
D||*-9---------9-----|7---------7-----|
A||--9---------9-----|5---------5-----|
E||--7---------7-----|----------------|

  I don't know or care
  I think I'm almost there
e|-5---------5-----|-----------------||
B|-5---------5-----|9---------9------||
G|-6---------6-----|9---------9-----*||
D|-7---------7-----|9---------9-----*||
A|-7---------7-----|7---------7------||
E|-5---------5-----|-----------------||

(Get quieter)

I got four walls yeah
I got just four walls yeah
e||------------------|----------------|
B||------------------|----------------|
G||*-----------------|7---------7-----|
D||*-9---------9-----|7---------7-----|
A||--9---------9-----|5---------5-----|
E||--7---------7-----|----------------|
Up inside my mind
But one I cannot find
e|-----------------|-----------------||
B|-----------------|-----------------||
G|-----------------|9---------9-----*||
D|-7---------7-----|9---------9-----*||
A|-7---------7-----|7---------7------||
E|-5---------5-----|-----------------||

(Loud again)

Haizman's brain is calling
It only wants inside your world
e||--7-----------7---|----------------|
B||--7-----------7---|9-----------9---|
G||*-8-----------8---|9-----------9---|
D||*-9-----------9---|9-----------9---|
A||--9-----------9---|7-----------7---|
E||--7-----------7---|----------------|
It's drilling  at your brain
Of anger, fear, and pain
e|-----------------|5-----------5----||
B|-7-----------7---|5-----------5----||
G|-7-----------7---|6-----------6---*||
D|-7-----------7---|7-----------7---*||
A|-5-----------5---|7-----------7----||
E|-----------------|5-----------5----||

It's a sign of living
e|-7-----------7---|----------------|
B|-7-----------7---|9-----------9---|
G|-8-----------8---|9-----------9---|
D|-9-----------9---|9-----------9---|
A|-9-----------9---|7-----------7---|
E|-7-----------7---|----------------|
Up inside your head
e|-----------------|5-----------5---|
B|-7-----------7---|5-----------5---|
G|-7-----------7---|6-----------6---|
D|-7-----------7---|7-----------7---|
A|-5-----------5---|7-----------7---|
E|-----------------|5-----------5---|
It's a sign of dying

e|-7-----------7---|----------------|
B|-7-----------7---|9-----------9---|
G|-8-----------8---|9-----------9---|
D|-9-----------9---|9-----------9---|
A|-9-----------9---|7-----------7---|
E|-7-----------7---|----------------|
My blood is turning red
e|-----------------|5---------------|
B|-7-----------7---|5---------------|
G|-7-----------7---|6---------------|
D|-7-----------7---|7---------------|
A|-5-----------5---|7---------------|
E|-----------------|5-5-5-5-5-5-5-5-|

Haizman's brain is calling
It only wants to step inside
e||--7-----------7---|----------------|
B||--7-----------7---|9-----------9---|
G||*-8-----------8---|9-----------9---|
D||*-9-----------9---|9-----------9---|
A||--9-----------9---|7-----------7---|
E||--7-----------7---|----------------|

It's knocking at your door
Just a little more
e|-----------------|5-----------5----||
B|-7-----------7---|5-----------5----||
G|-7-----------7---|6-----------6---*||
D|-7-----------7---|7-----------7---*||
A|-5-----------5---|7-----------7----||
E|-----------------|5-----------5----||

e|-7---------7-----|----------------|
B|-7---------7-----|7---------7-----|
G|-8---------8-----|7---------7-----|
D|-9---------9-----|7---------7-----|
A|-9---------9-----|5---------5-----|
E|-7---------7-----|----------------|

					Aaaaaaa!
e|-5---------5-----|----------------|
B|-5---------5-----|9---------------|
G|-6---------6-----|9---------------|
D|-7---------7-----|9---------------|
A|-7---------7-----|7---------------|
E|-5---------5-----|----------------|

e|-7---------7-----|----------------|
B|-7---------7-----|7---------7-----|
G|-8---------8-----|7---------7-----|
D|-9---------9-----|7---------7-----|
A|-9---------9-----|5---------5-----|
E|-7---------7-----|----------------|


e|-5---------5-----|------||
B|-5---------5-----|9999--||
G|-6---------6-----|9999--||
D|-7---------7-----|9999--||
A|-7---------7-----|7777--||
E|-5---------5-----|------||
Suggest correction
Give kudos to tab author, rate the tab!
1 2 3 4 5
comments
print report bad tab
guest
You may want to rate the tab now too:
select rating
Wanna post a correction for this tab? Suggest correction