Oops, an error
Loading. Please wait.

Matchstick Men Tab

292 views 1 this week
no commentswrite comment
1 2 3 4 5
please rate
add to favorites
launch autoscroll
font size
0
reset
how to read this tab
guitar tuner
Autoscroll
slow
fast
+/-
esc
set tempo
stop
Help us to improve Ultimate-Guitar.com Take our survey!
×
Contributor
Difficulty
novice
-------------------------------------------------------------------------------
                             Matchstick Men - Angry Samoans
-------------------------------------------------------------------------------

      This is a cover of Status Quo. The Angry Samoans version of Pictures of 
Matchstick Men from the Return to Samoa LP.It's a Simple version of this song 
and fun to play.


Tuning:Standard

Intro
                                                 X2
e|----------------------------------------------|
B|----------------------------------------------|
G|---9--9--9-9--7-7-7--11-11-11-11-11--9-9-9----|
D|----------------------------------------------|
A|----------------------------------------------|
E|----------------------------------------------|

e|------------------------------------|
B|------------------------------------|
G|--9-9-----7-7------9-9-----7-7------|
D|--9-9-9-9-7-7-7-7--9-9-9-9-7-7-7-7--|
A|--7-7-9-9-5-5-7-7--7-7-9-9-5-5-7-7--|
E|------7-7-----5-5------7-7-----5-5--|

e|--------------------------------------------|
B|--------------------------------------------|
G|------7-7---------7-7------7-7---------9-9--|
D|--9-9-7-7-7-7-7-7-7-7--9-9-7-7-7-7-7-7-9-9--|
A|--9-9-5-5-7-7-7-7-9-9--9-9-5-5-7-7-7-7-7-7--|
E|--7-7-----5-5-5-5------7-7-----5-5-5-5------|

e|-------------------|
B|-------------------|
G|--9-9-----7-7------|
D|--9-9-9-9-7-7-7-7--|
A|--7-7-9-9-5-5-7-7--|
E|------7-7-----5-5--|

e|--------------------------------|
B|------9-9-10-7-9----9-9-10-7-9--|
G|--9-9------------9-9------------|
D|--9-9------------9-9------------|
A|--7-7------------7-7------------|
E|--------------------------------|

 Chorus

e|----------------------------------------|
B|----------------------------------------|
G|---------------9--9--9---------------9--|
D|--7--7--9--9---9--9--9--7--7--9--9---9--|
A|--7--7--9--9---7--7--7--7--7--9--9---7--|
E|--5--5--7--7------------5--5--7--7------|

                                                 x2
e|----------------------------------------------|
B|----------------------------------------------|
G|---9--9--9-9--7-7-7--11-11-11-11-11--9-9-9----|
D|----------------------------------------------|
A|----------------------------------------------|
E|----------------------------------------------|

                          x2
e|-----------------------|
B|-----------------------|
G|--7-8-9--9-9-9-9-9-9---|
D|-----------------------|
A|-----------------------|
E|-----------------------|

e|------------------------------------|
B|------------------------------------|
G|--9-9-----7-7------9-9-----7-7------|
D|--9-9-9-9-7-7-7-7--9-9-9-9-7-7-7-7--|
A|--7-7-9-9-5-5-7-7--7-7-9-9-5-5-7-7--|
E|------7-7-----5-5------7-7-----5-5--|

e|--------------------------------------------|
B|--------------------------------------------|
G|------7-7---------7-7------7-7---------9-9--|
D|--9-9-7-7-7-7-7-7-7-7--9-9-7-7-7-7-7-7-9-9--|
A|--9-9-5-5-7-7-7-7-9-9--9-9-5-5-7-7-7-7-7-7--|
E|--7-7-----5-5-5-5------7-7-----5-5-5-5------|

e|-------------------|
B|-------------------|
G|--9-9-----7-7------|
D|--9-9-9-9-7-7-7-7--|
A|--7-7-9-9-5-5-7-7--|
E|------7-7-----5-5--|

e|--------------------------------|
B|------9-9-10-7-9----9-9-10-7-9--|
G|--9-9------------9-9------------|
D|--9-9------------9-9------------|
A|--7-7------------7-7------------|
E|--------------------------------|

 Chorus
                                           x2
e|----------------------------------------|
B|----------------------------------------|
G|---------------9--9--9---------------9--|
D|--7--7--9--9---9--9--9--7--7--9--9---9--|
A|--7--7--9--9---7--7--7--7--7--9--9---7--|
E|--5--5--7--7------------5--5--7--7------|

************************************

| /   slide up
| \   slide down
| h   hammer-on
| p   pull-off
| ~   vibrato
| +   harmonic
| x   Mute note
| b   Bend
| pb  Pre-bend
| br  Bend release
| pbr Pre-bend release
| brb Bend release bend

************************************
comments
We did not receive enough feedback on this tab! Please rate:
print report bad tab
1 2 3 4 5
I want to post or [tab]
guest
You may want to rate the tab now too:
select rating
Please do not post tabs as comments. Select "correction" instead!