Oops, an error
Loading. Please wait.

Psych-Out 129 Tab

209 views 1 this week
no commentswrite comment
1 2 3 4 5
please rate
add to favorites
launch autoscroll
font size
0
reset
how to read this tab
guitar tuner
Autoscroll
slow
fast
+/-
esc
set tempo
stop
Help us to improve Ultimate-Guitar.com Take our survey!
×
Author
Difficulty
novice
Angry Samoans an L.A punk band
a good L.A Punk band at that
This is a very easy song to play, but I did not figure out the solo, so if anybody does 
e-mail me at superduperdksteven@yahoo.com

INTRO
e|--------------------------------------------------------|
B|--------------------------------------------------------|
G|--8-8------------11-11----------------------------  X 2-|
D|--8-8----11-11---11-11----11-11-------------------------|
A|--6-6----11-11----9--9----11-11-------------------------|
E|----------9--9-------------9--9-------------------------|

e|--------------------------------------------------|
B|--------------------------------------------------|
G|--8-8-8--------------11-11-11---------------------|  X 6
D|--8-8-8---11-11-11---11-11-11---11-11-11----------|
A|--6-6-6---11-11-11----9--9--9---11-11-11----------|
E|-----------9--9--9---------------9--9--9----------|

e|--------------------------------------------------|
B|--------------------------------------------------|
G|--------------------------------------------------|
D|-8-8-8-8-8----------------------------------------|
A|-8-8-8-8-8----------------------------------------|
E|-6-6-6-6-6----------------------------------------|

e|--------------------------------------------------|
B|--------------------------------------------------|
G|--8-8-8--------------11-11-11---------------------|  X 6
D|--8-8-8---11-11-11---11-11-11---11-11-11----------|
A|--6-6-6---11-11-11----9--9--9---11-11-11----------|
E|-----------9--9--9---------------9--9--9----------|

e|------------------------------------------------------------|
B|------------------------------------------------------------|
G|-10-10-10-10-10---------------10-10-10-10-10----------------|
D|-10-10-10-10-10---8-8-8-8-8---10-10-10-10-10----8-8-8-8-8---|
A|--8--8--8--8--8---8-8-8-8-8----8--8--8--8--8----8-8-8-8-8---|
E|------------------6-6-6-6-6---------------------6-6-6-6-6---|


e|-----------------------------------------|
B|-----------------------------------------|
G|------------6-6-6-6----5-5-5-5-----------|
D|-6-6-6-6----6-6-6-6----5-5-5-5-----------|
A|-6-6-6-6----4-4-4-4----3-3-3-3-----------|
E|-4-4-4-4---------------------------------|

SOLO  I DO NOT  KNOW


e|-----------------------------------------------------------------|
B|-----------------------------------------------------------------|
G|--8-8-8-8-8-8-8----11-11-11-11-11-11-11--------------------------|
D|--8-8-8-8-8-8-8----11-11-11-11-11-11-11---11-11-11-11-11-11-11---|  X 4
A|--6-6-6-6-6-6-6-----9--9--9--9--9--9--9---11-11-11-11-11-11-11---|
E|-------------------------------------------9--9--9--9--9--9--9---|

e|----------------------------------------------------------------------|
B|----------------------------------------------------------------------|
G|-10-10-10-10-10----11-11-11-11-11-------10-10-10-10-10----------------|
D|-10-10-10-10-10----11-11-11-11-11-------10-10-10-10-10----8-8-8-8-8---|
A|--8--8--8--8--8-----9--9--9--9--9--------8--8--8--8--8----8-8-8-8-8---|
E|----------------------------------------------------------6-6-6-6-6---|


e|-----------------------------------------|
B|-----------------------------------------|
G|------------6-6-6-6----5-5-5-5-----------|
D|-6-6-6-6----6-6-6-6----5-5-5-5-----------|
A|-6-6-6-6----4-4-4-4----3-3-3-3-----------|
E|-4-4-4-4---------------------------------|

e|--------------------------------------------------|
B|--------------------------------------------------|
G|--8-8-8--------------11-11-11---------------------|
D|--8-8-8---11-11-11---11-11-11---11-11-11----------|
A|--6-6-6---11-11-11----9--9--9---11-11-11----------|
E|-----------9--9--9---------------9--9--9----------|
Suggest correction
What's this?
You can suggest a correction to this tab. Community and Mods will review your correction and vote to approve or reject it.
comments
We did not receive enough feedback on this tab! Please rate:
print report bad tab
1 2 3 4 5
guest
You may want to rate the tab now too:
select rating
Please do not post tabs as comments. Select "correction" instead!