Oops, an error
Loading. Please wait.

Steak Knife Tab

1,272 views 1 this week
no commentswrite comment
1 2 3 4 5
please rate
add to favorites
launch autoscroll
font size
0
reset
how to read this tab
guitar tuner
Tab Pro tools
  • play this tab
  • loop segment
  • change instrument
  • show fretboard
  • metronome
×
Best way to learn
"Steak Knife"
Autoscroll
slow
fast
+/-
esc
set tempo
stop
Contributor
Band: Angry Samoans
Song: Steak Knife
Album: Back From Samoa
Year: 1982



e|----------------|---------------|
B|----------------|---------------|
G|-7----5---------|---------------|
D|-7----5---------|---------------|
A|-5----3---------|---------------|
E|----------------|---------------|

Steak knife - there's a hole in my head
Steak knife - you're gonna be dead
Steak knife - it's a heavy change
Steak knife - say goodbye to your brain
X4
e||-----------------|----------------||
B||-----------------|----------------||
G||*-7---7---5---5--|2--2-----2—-2-2*||
D||*-7---7---5-—-5--|2--2-----2—-2-2*||
A||--5---5---3---3--|0--0-----0—-0-0-||
E||-----------------|----------------||

There's a hole, there's a hole in my heart
Dick hurts, chop it apart
Fuckin' sheep, I'm on the rag
X3
e||-----------------|---------------|
B||-----------------|---------------|
G||*----------------|---------------|
D||*----------------|---------------|
A||--0-0-0-0-0-0-0-0|0-0-0-0-0-0-0-0|
E||-----------------|---------------|

e|----------------|----------------||
B|----------------|----------------||
G|-5-5-5-5-5-5-5-5|5-5-5-5-5-5-5-5*||
D|-5-5-5-5-5-5-5-5|5-5-5-5-5-5-5-5*||
A|-3-3-3-3-3-3-3-3|3-3-3-3-3-3-3-3-||
E|----------------|----------------||


They got my balls in a plastic bag
e|----------------|---------------|
B|----------------|---------------|
G|----------------|---------------|
D|----------------|---------------|
A|-0-0-0-0-0-0-0-0|0-0-0-0-0-0-0-0|
E|----------------|---------------|

e|----------------|---------------|
B|----------------|---------------|
G|-5-5-5-5-5-5-5-5|-------------7-|
D|-5-5-5-5-5-5-5-5|5-------7----7-|
A|-3-3-3-3-3-3-3-3|5-------7----5-|
E|----------------|3-------5------|

I think I need a doctor 
e|----------------|---------------|
B|----------------|---------------|
G|-7--------------|5--------------|
D|-7--------------|5--------------|
A|-5--------------|3--------------|
E|----------------|---------------|

to look inside my head
e|----------------|---------------|
B|----------------|---------------|
G|----------------|---------------|
D|-5--------------|7--------------|
A|-5--------------|7--------------|
E|-3--------------|5--------------|

Every time I love a girl  
e|----------------|---------------|
B|----------------|---------------|
G|-7--------------|5--------------|
D|-7--------------|5--------------|
A|-5--------------|3--------------|
E|----------------|---------------|

I stab her in my bed
e|----------------|---------------|
B|----------------|---------------|
G|----------------|---------------|
D|-3--------------|5--------------|
A|-3--------------|5--------------|
E|-1--------------|3--------------|

I see my life  
e|----------------|---------------|
B|----------------|---------------|
G|-7--------------|5--------------|
D|-7--------------|5--------------|
A|-5--------------|3--------------|
E|----------------|---------------|

in visions crimson shape
e|----------------|---------------|
B|----------------|---------------|
G|----------------|---------------|
D|-5--------------|7--------------|
A|-5--------------|7--------------|
E|-3--------------|5--------------|

I see my life in hell 
e|----------------|---------------|
B|----------------|---------------|
G|-7--------------|5--------------|
D|-7--------------|5--------------|
A|-5--------------|3--------------|
E|----------------|---------------|

there's no escape
e|----------------|---------------|
B|----------------|---------------|
G|----------------|---------------|
D|-3--------------|5--------------|
A|-3--------------|5--------------|
E|-1--------------|3-3-3-3-3-3-3-3|

e||-----------------|---------------|
B||-----------------|---------------|
G||*----------------|---------------|
D||*----------------|---------------|
A||--0-0-0-0-0-0-0-0|0-0-0-0-0-0-0-0|
E||-----------------|---------------|


e|----------------|----------------||
B|----------------|----------------||
G|-5-5-5-5-5-5-5-5|5-5-5-5-5-5-5-5*||
D|-5-5-5-5-5-5-5-5|5-5-5-5-5-5-5-5*||
A|-3-3-3-3-3-3-3-3|3-3-3-3-3-3-3-3-||
E|----------------|----------------||

There's a hole, there's a hole in my heart
e|----------------|---------------|
B|----------------|---------------|
G|----------------|---------------|
D|----------------|---------------|
A|-0-0-0-0-0-0-0-0|0-0-0-0-0-0-0-0|
E|----------------|---------------|

e|----------------|---------------|
B|-3-3-3-3-3-3-3-3|3-3-3-3-3-3-3-3|
G|-0-0-0-0-0-0-0-0|0-0-0-0-0-0-0-0|
D|-2-2-2-2-2-2-2-2|2-2-2-2-2-2-2-2|
A|-3-3-3-3-3-3-3-3|3-3-3-3-3-3-3-3|
E|----------------|---------------|

Head hurts, chop it apart
e|----------------|---------------|
B|----------------|---------------|
G|----------------|---------------|
D|----------------|---------------|
A|-0-0-0-0-0-0-0-0|0-0-0-0-0-0-0-0|
E|----------------|---------------|

e|----------------|---------------|
B|-3-3-3-3-3-3-3-3|---------------|
G|-0-0-0-0-0-0-0-0|---------------|
D|-2-2-2-2-2-2-2-2|5--------------|
A|-3-3-3-3-3-3-3-3|5--------------|
E|----------------|3--------------|

Steak knife - there's a hole in my head
Steak knife - you're gonna be dead
Steak knife - it's a heavy change
X3
e||-----------------|----------------||
B||-----------------|----------------||
G||*-7---7---5---5--|2--2-----2—-2-2*||
D||*-7---7---5-—-5--|2--2-----2—-2-2*||
A||--5---5---3---3--|0--0-----0—-0-0-||
E||-----------------|----------------||

Steak knife 
e|----------------|---||
B|----------------|---||
G|-7---7---5---5--|2--||
D|-7---7---5-—-5--|2--||
A|-5---5---3---3--|0--||
E|----------------|---||






comments
We did not receive enough feedback on this tab! Please rate:
print report bad tab
1 2 3 4 5
I want to post or [tab]
guest
You may want to rate the tab now too:
select rating
Please do not post tabs as comments. Select "correction" instead!