Oops, an error
Loading. Please wait.

Stp Not Lsd Tab

1,303 views 1 this week
no commentswrite comment
1 2 3 4 5
3 more votes to show rating
add to favorites
launch autoscroll
font size
0
reset
how to read this tab
guitar tuner
Autoscroll
slow
fast
+/-
esc
set tempo
stop
Help us to improve Ultimate-Guitar.com Take our survey!
×
Author
Difficulty
novice
Everything but the solo:

|----------------------------------1--1-1--1-1----------------------|
|----------------------------------1--1-1--1-1----------------------|
|--------------------1--1--1-1-1-1-3--3-3--3-3----------------------|
|--2-/-3--3-3-3------3--3--3-3-3-3-3--3-3--3-3--2-/-3--3-3-3--------|
|--2-/-3--3-3-3--x4--3--3--3-3-3-3-1--1-1--1-1--2-/-3--3-3-3--x4----|
|--0-/-1--1-1-1------1--1--1-1-1-1--------------0-/-1--1-1-1--------|
|: verses
              |: stops on this note during 2nd and 3rd verse
|-1--1-1--1-1-3--3-3--3-3-|1--1-1-1-1-1-1--1-1-1-1-1--3--3-3-3-3-3--|
|-1--1-1--1-1-3--3-3--3-5-|1--1-1-1-1-1-1--1-1-1-1-1--3--3-3-3-3-3--|
|-3--3-3--3-3-5--5-5--5-5-|2--2-2-2-2-2-3--3-3-3-3-3--5--5-5-5-5-5--|
|-3--3-3--3-3-5--5-5--5-5-|3--3-3-3-3-3-3--3-3-3-3-3--5--5-5-5-5-5--|
|-1--1-1--1-1-3--3-3--3-3-|3--3-3-3-3-3-1--1-1-1-1-1--3--3-3-3-3-3--|
|-------------------------|1--1-1-1-1-1-----------------------------|
              end verses :|: chorus
 d d u  u d stroking here
-1-1-1--1-1-|
-1-1-1--1-1-|
-3-3-2--2-2-|         Thats pretty much all of 'er
-3-3-3--3-3-|
-1-1-3--3-3-|
-----1--1-1-|
end chorus :|
Suggest correction
Give kudos to tab author, rate the tab!
1 2 3 4 5
comments
print report bad tab
guest
You may want to rate the tab now too:
select rating
Wanna post a correction for this tab? Suggest correction