Oops, an error
Loading. Please wait.

The Todd Killings Tab

527 views 1 this week
no commentswrite comment
1 2 3 4 5
please rate
add to favorites
launch autoscroll
font size
0
reset
how to read this tab
guitar tuner
Autoscroll
slow
fast
+/-
esc
set tempo
stop
Help us to improve Ultimate-Guitar.com Take our survey!
×
Author
Tabbers playing skills
beginner
-------------------------------------------------------------------------------
The Todd Killings - Angry Samoans
Back From Samoa
-------------------------------------------------------------------------------
Tabbed by: axeslash
Email: holmzito@yahoo.com

Tuning: Standard

e|----------------------------------------------|
B|----------------------------------------------|
G|-9--9------------9-9------7--7-------7-X------|
D|-------9-9-9--9------9----------7--------7----|
A|----------------------------------------------|
E|----------------------------------------------|

e|-------------------------------|
B|-------------------------------|
G|-9-9-----9-X----7-7-----7-x----|
D|-9-9-9-9-9-X-9--7-7-7-7-7-X-7--|
A|-7-7-9-9-7-X-9--5-5-7-7-5-X-7--|
E|-----7-7-----7------5-5-----5--| x2

e|-----------------------------------------------------------------|
B|-----------------------------------------------------------------|
G|---------5-5-5-5---------5-5-5-5---------9-9-9-9---------9-9-9-9-|
D|-5-5-5-5-5-5-5-5-5-5-5-5-5-5-5-5-9-9-9-9-9-9-9-9-9-9-9-9-9-9-9-9-|
A|-5-5-5-5-3-3-3-3-5-5-5-5-3-3-3-3-9-9-9-9-7-7-7-7-9-9-9-9-7-7-7-7-|
E|-3-3-3-3---------3-3-3-3---------7-7-7-7---------7-7-7-7---------|

e|---------------------------------|
B|---------------------------------|
G|-9-9-----9-X----7-7-----7--------|
D|-9-9-9-9-9-X-9--7-7-7-7-7--------|
A|-7-7-9-9-7-X-9--5-5-7-7-5--------|
E|-----7-7-----7------5-5----------| x2

e|-----------------------------------------------------------------|
B|-----------------------------------------------------------------|
G|---------5-5-5-5---------5-5-5-5---------9-9-9-9---------9-9-9-9-|
D|-5-5-5-5-5-5-5-5-5-5-5-5-5-5-5-5-9-9-9-9-9-9-9-9-9-9-9-9-9-9-9-9-|
A|-5-5-5-5-3-3-3-3-5-5-5-5-3-3-3-3-9-9-9-9-7-7-7-7-9-9-9-9-7-7-7-7-|
E|-3-3-3-3---------3-3-3-3---------7-7-7-7---------7-7-7-7---------|

e|-----------------------------------------|
B|-----------------------------------------|
G|-9--9--------9-X----7--7--------7-X------|
D|-------9-9-9-----9--------7-7-7-----7----|
A|-----------------------------------------|
E|-----------------------------------------|

e|---------------------------------|
B|---------------------------------|
G|-9-9-----9-X----7-7-----7--------|
D|-9-9-9-9-9-X-9--7-7-7-7-7--------|
A|-7-7-9-9-7-X-9--5-5-7-7-5--------|
E|-----7-7-----7------5-5----------| x2


| /  slide up
| \  slide down
| h  hammer-on
| p  pull-off
| ~  vibrato
| +  harmonic
| x  Mute note
===============================================================================
Suggest correction
Give kudos to tab author, rate the tab!
1 2 3 4 5
comments
print report bad tab
guest
You may want to rate the tab now too:
select rating
Please do not post tabs as comments. Select "correction" instead!