Oops, an error
Loading. Please wait.

They Saved Hitlers Cock Tab

2,392 views 6 this week
2 commentsread comments
1 2 3 4 5
x 4
add to favorites
×
Save as Personal and add changes to this tab that will be seen only by you. Learn more ›
×
You can save this tab as Personal to edit and correct it or add notes. All changes will be seen only by you. Learn more »
save as personal
new!
launch autoscroll
font size
0
reset
how to read this tab
guitar tuner
Autoscroll
slow
fast
+/-
esc
set tempo
stop
Difficulty
novice
-------------------------------------------------------------------------------
                    THEY SAVED HITLERS COCK - Angry Samoans
-------------------------------------------------------------------------------
Tabbed by: Stefan 
Email: stehphyn@yahoo.com

Tuning: standard (EADGBe)

e|----------------------------|
B|----------------------------|
G|----------------------------|
D|----------------------------|
A|-------7-6---4--4-4--7-6-4--|
E|-5--5------5----------------|

e|---------------------------------|
B|---------------------------------|
G|-7-7-7-7-7-7-7-7-5-5-5-5-5-5-5-5-|
D|-7-7-7-7-7-7-7-7-5-5-5-5-5-5-5-5-|
A|-5-5-5-5-5-5-5-5-3-3-3-3-3-3-3-3-|
E|---------------------------------|
Suggest correction
comments
print report bad tab
2 comments total.
0 reply
oipunx4life 10 Jan 11, 2008 07:37 PM

Easy song, badass tab, though I hear the riff start as


A|-------7-6---4-4-4-4--7-6-4--|
E|-5--5------5-----------------|

and after 2-3 vocal phases, when the beat
picks up, it changes to the posted one, losing the last note (FYI)

0 reply
oipunx4life 10 Jan 11, 2008 07:40 PM

EDIT: Losing not the "last" note, but the last A|-4-| if anyone hasn't heard the song or isn't able to pick it up

guest
Wanna post a correction for this tab? Suggest correction