Oops, an error
Loading. Please wait.

Another Day Tab

7,350 views 15 this week
no commentswrite comment
1 2 3 4 5
excellent!
x 4
add to favorites
launch autoscroll
font size
0
reset
how to read this tab
guitar tuner
Tab Pro tools
  • play this tab
  • loop segment
  • change instrument
  • show fretboard
  • metronome
Autoscroll
slow
fast
+/-
esc
set tempo
stop
Contributor
Angus & Julia Stone – Another Day
Tabbed by Michael Higgins

The Am played in the chorus can be played as an Am7, the piano plays C G Am F, but on 
sounds better C Am / Am7 G F.

    Am                         F
e|---------------------------|---------------------------|
B|--------1--1---------1--1--|---------------------------|
G|--------2--2---------2--2--|--------2--2---------2--2--|
D|-----2------------2--------|--------3--3---------3--3--|
A|--0------------0-----------|-----3------------3--------|
E|---------------------------|--1------------1-----------|

Use this progression throughout the course of the song

Intro

    Am                         F
e|---------------------------|---------------------------|
B|--------1--1---------1--1--|---------------------------|
G|--------2--2---------2--2--|--------2--2---------2--2--|
D|-----2------------2--------|--------3--3---------3--3--|
A|--0------------0-----------|-----3------------3--------|
E|---------------------------|--1------------1-----------|

    Am                         F
e|---------------------------|---------------------------|
B|--------1--1---------1--1--|---------------------------|
G|--------2--2---------2--2--|--2------------------------|
D|-----2------------2--------|--3------------------------|
A|--0------------0-----------|---------------------------|
E|---------------------------|--1------------------------|

Am         F            Am         F
e|------------------------|---------------------------|
B|---5----3----1-----0----|--1------------------------|
G|------------------------|---------------------------|
D|------------------------|---------------------------|
A|------------------------|---------------------------|
E|------------------------|---------------------------|

Am         F            Am         F
e|------------------------|---------------------------|
B|---5----3----1-----0----|--1------------------------|
G|------------------------|---------------------------|
D|------------------------|---------------------------|
A|------------------------|---------------------------|
E|------------------------|---------------------------|

Am          F
Down by the seashore,
Am            F
the waves are bigger then normal.
Am     F                    Am          F
I      asked you if I could flicker out,
Am             F
you say “don’t think so”.
Am     F
I just want you to believe.
Am          F             Am             F  F
Even though I know its impossible for me.

C     Am      G       F
There goes another day,
C      Am               G         F
don’t suppose ill come out to play with you.
C        Am
Ill just sit at home ,
G      F        C
Write another song
Am           G      F
about how I wanted too


Am         F            Am         F
e|------------------------|---------------------------|
B|---5----3----1-----0----|--1------------------------|
G|------------------------|---------------------------|
D|------------------------|---------------------------|
A|------------------------|---------------------------|
E|------------------------|---------------------------|

Am          F
Down by the seashore.
    Am               F
Ill say it’s the spray,
           Am        F
I’m not crying,
            Am              F    f
It’s such a little thing anyway.


C     Am      G       F
There goes another day,
C      Am               G         F
don’t suppose ill come out to play with you.
C        Am
Ill just sit at home ,
G      F        C
Write another song
Am           G      F
about how I wanted too


F     G              Am
All I wanted was for you too believe.
F     G              Am
All I wanted was for you too believe
F     G              Am
All I wanted was for you too believe in me
F     G
All I wanted was…

C     Am      G       F
There goes another day,
C      Am               G         F
don’t suppose ill come out to play with you.
C        Am
Ill just sit at home ,
G      F        C
Write another song
Am           G      F
about how I wanted too
(x5)
comments
print report bad tab
I want to post or [tab]
guest
You may want to rate the tab now too:
select rating
Please do not post tabs as comments. Select "correction" instead!