Oops, an error
Loading. Please wait.

Babylon tab

version 3
version 3

Whole song

Interactive

14,421 views 3 this week
1 commentread comment
1 2 3 4 5
2 more votes to show rating
add to favorites
×
Save as Personal and add changes to this tab that will be seen only by you. Learn more ›
×
You can save this tab as Personal to edit and correct it or add notes. All changes will be seen only by you. Learn more »
launch autoscroll
font size
0
reset
how to read this tab
guitar tuner
edit
Autoscroll
slow
fast
+/-
esc
set tempo
stop
Author
Difficulty
intermediate
This is my first tab, I have used Thomas B's Previous Tab, and editted it. THe tab below 
believe is more accurate and allows for all the notes to ring properly:-

e|------------------------------------------------------------------|
B|------------------------------------------------------------------|
G|------------2-----------------------------2-----------------------|
D|--2h4h5p0-----0--5--4—-—2h4-0----2h4h5p0----0--5--4-—2h4-0--------|
A|------------------------------------------------------------------|
E|------------------------------------------------------------------|

e|--------------------------------------------------------3-x--|
B|----------------------------------------------------3---3-x--|
G|----------------------------------------------------0---0-x--|
D|--------0----4----0----0-0-x-x------0----4----0---0-0---0-x--|
A|-----------------------2-2-x-x--------------------2-2---2-x--|
E|---2h3-----3----3------3-3-x-x--2h3----3----3-----3-3---3-x--|

listen to the song to get that rhythm, + with the muting, i may not be written down 
right, but you know yourself, once your playing the song you get the muting with the rhythm 
beat. (Much harder to isolate it and write it down :-) ).

the chords are strummed once during the chorus as follows:
    Em(022033)      G(320033)
(No I don’t want to be ay-ay-alone)

************************************

| h  Hammer-on
| p  Pull-off
| x  Dead note

************************************

            
            
Suggest correction
Creating personal tab
Creating personal tab
You can edit any tab online and save it as your Personal.

You can edit, replace or remove any tab part or add personal notes – all changes will be seen only by you.

Personal tabs can be accessed anytime from any device, even offline.
Learn more »
Give kudos to tab author, rate the tab!
1 2 3 4 5
comments
print report bad tab
1 comment total.
0 reply
Milkee 10 Jul 16, 2008 03:51 PM

When I tabbed this out, I used the latter (2h4 0) and then the G note afterward. Ringed a bit better to me, but I'm just crazy :D.
e------------------------------------------------------------------|
B------------------------------------------------------------------|
G----------0-2---------------------------0-2-----------------------|
D--2h4-0-------0--5--4—-—2h4-0----2h4-0------0--5--4-—2h4-0--------|
A------------------------------------------------------------------|
E------------------------------------------------------------------|
OR (Whichever is easiest... I choose this one usually)
e------------------------------------------------------------------|
B------------------------------------------------------------------|
G----------0-2----0----------------------0-2----0------------------|
D--2h4-0-------0-----4—-—2h4-0----2h4-0------0-----4-—2h4-0--------|
A------------------------------------------------------------------|
E------------------------------------------------------------------|

But nonetheless, great tab ^^ 5 star.
And people think that it's in Drop D because of the Bassoon (or whatever it is) in the background, don't get muddled up by it.

guest
You may want to rate the tab now too:
select rating
Wanna post a correction for this tab? Suggest correction