Oops, an error
Loading. Please wait.

Babylon Tab

version 5
version 5

Whole song

Interactive

6,391 views 12 this week
1 commentread comment
1 2 3 4 5
please rate
add to favorites
launch autoscroll
font size
0
reset
how to read this tab
guitar tuner
Tab Pro tools
  • play this tab
  • loop segment
  • change instrument
  • show fretboard
  • metronome
×
Best way to learn
"Babylon"
Autoscroll
slow
fast
+/-
esc
set tempo
stop
Contributor
Song: Babylon
Artist: Angus And Julia Stone
Albym: Chocolates And Cigarettes EP

Tuning: Dropped D

verse

e|-----------------------------------------------------|
b|-----------------------------------------------------|
g|-------0-----2------0--------------------------------|
D|--2h4----0-------------4--2h4--0---------------------|
A|-----------------------------------------------------|    x2
D|--0--------------0--------0--------------------------|

e|-----------------------------------------------------|
b|-----------------------------------------------------|
g|-----------------------------------------------------|
D|-------------4------------0-0-0-0--------------------|
A|--------5------5----------5-5-5-5--------------------|    x2
D|---4h5----5---------5-5-5-5-5-5-5--------------------|

(repeat several times)


chorus

e|-----------------------------------------------------|
b|-----------------------------------------------------|
g|-------0-----2------0--------------------------------|
D|--2h4----0-------------4--2h4--0---------------------|
A|-----------------------------------------------------|    x2
D|--0--------------0--------0--------------------------|


            Em                G

e|-----------0----------------0------------------------|
b|-----------0----------------0------------------------|
g|-----------0----------------0------------------------|
D|-----------2----------------5------------------------|
A|-----------2----------------5------------------------|   x1
D|-----------2----------------5------------------------|


e|-----------------------------------------------------|
b|-----------------------------------------------------|
g|-------0-----2------0--------------------------------|
D|--2h4----0-------------4--2h4--0---------------------|
A|-----------------------------------------------------|    x2
D|--0--------------0--------0--------------------------|


e|-----------0----------------0------------------------|
b|-----------0----------------0------------------------|
g|-----------0----------------0------------------------|
D|-----------2----------------5------------------------|
A|-----------2----------------5------------------------|   x1
D|-----------2----------------5------------------------|


verse
e|-----------------------------------------------------|
b|-----------------------------------------------------|
g|-------0-----2------0--------------------------------|
D|--2h4----0-------------4--2h4--0---------------------|
A|-----------------------------------------------------|    x2
D|--0--------------0--------0--------------------------|

e|-----------------------------------------------------|
b|-----------------------------------------------------|
g|-----------------------------------------------------|
D|-------------4------------0-0-0-0--------------------|
A|--------5------5----------5-5-5-5--------------------|    x2
D|---4h5----5---------5-5-5-5-5-5-5--------------------|



comments
We did not receive enough feedback on this tab! Please rate:
print report bad tab
1 2 3 4 5
1 comment total.
0 reply
_nirvana_ wrote on May 23 2011, 06:49 pm

Finally someone got the end of the verse! Thanks for the chords and the number of times we should play each riffs... I'm a bit lazy!

I' sticking to the...

e|-----------------------------------------------------|
b|-----------------------------------------------------|
g|-------0-----2------0--------------------------------|
D|--2h4------------------4--2h4--0---------------------|
A|-----------------------------------------------------| x2
D|--0-------0------0--------0--------------------------|

.. of version 5 though. Easier.

Thank you for that great tab!

I want to post or [tab]
guest
You may want to rate the tab now too:
select rating
Please do not post tabs as comments. Select "correction" instead!