Oops, an error
Loading. Please wait.

Beast Tab

version 1
version 1

Solo

Whole song

2,699 views 1 this week
1 commentread comment
1 2 3 4 5
excellent!
x 3
add to favorites
launch autoscroll
font size
0
reset
how to read this tab
guitar tuner
Tab Pro tools
  • play this tab
  • loop segment
  • change instrument
  • show fretboard
  • metronome
×
Best way to learn
"Beast"
Autoscroll
slow
fast
+/-
esc
set tempo
stop
Contributor
Difficulty
Capo
intermediate
2nd fret
|------------------------------------------|
|  THE BEAST SOLO - Angus and Julia Stone  |
|------------------------------------------|
| Tabbed by: markush19         |
| Email: markush19@hotmail.com |
|------------------------------|
| Tuning: Standard             |
|------------------------------|
| Capo: 2nd fret               |
|------------------------------|

This was previously tabbed by katrinaaah, but was just slightly off.

I've also thrown in some vibratos and slides that just add a little bit to it.

Angus only does a couple on the album version but improvs a little more on some live versions.

e|------------------------------------| 
B|------------------------------------|
G|-11h12-14-12-11-12-9~--7-11~----7~\-|
D|------------------------------------|
A|------------------------------------|
E|------------------------------------|

e|------------------------------------|
B|------------------------------------|
G|-11h12-14-12-11-12-9~--7~\----------|
D|------------------------------------|
A|------------------------------------|
E|------------------------------------|

e|------------------------------------|
B|------------------------------------|
G|------------4~---6~-----------------|
D|--------4-7----7----7~\-------------|
A|----5-7-----------------------------|
E|--7---------------------------------|

e|------------------------------------|    
B|------------------------------------|    
G|------------4~---6~-----------------|       / All notes before the 7th  
D|--------4-7----7----7~--------------|   ---|  fret of the D string are
A|----5-7-----------------------------|       \ palm muted.
E|--7---------------------------------|

e|------------------------------------|
B|------------------------------------|
G|--9-9-9-9b10r9-7~-------------------|
D|------------------------------------|
A|------------------------------------|
E|------------------------------------|

e|------------------------------------|
B|------------------------------------|
G|--9-9-9-9b10r9-7~----6~--4~---------|
D|------------------------------------|
A|------------------------------------|
E|------------------------------------|

| /  slide up
| \  slide down
| h  hammer-on
| p  pull-off
| ~  vibrato
| +  harmonic
| x  Mute note
comments
We did not receive enough feedback on this tab! Please rate:
print report bad tab
1 2 3 4 5
1 comment total.
0 reply
lachie_45 wrote on June 7 2013, 09:12 am

I just prefer the tab without reference to the capo. So here is everything two frets up.


e|------------------------------------|
B|------------------------------------|
G|-13h14-16-14-13-14-11~--9-13~---9~\-|
D|------------------------------------|
A|------------------------------------|
E|------------------------------------|

e|------------------------------------|
B|------------------------------------|
G|-13h14-16-14-13-14-11~--9~\---------|
D|------------------------------------|
A|------------------------------------|
E|------------------------------------|

e|------------------------------------|
B|------------------------------------|
G|------------6~---8~-----------------|
D|--------6-9----9----9~\-------------|
A|----7-9-----------------------------|
E|--9---------------------------------|

e|------------------------------------|
B|------------------------------------|
G|------------6~---8~-----------------| / All notes before the 7th
D|--------6-9----9----9~--------------| ---| fret of the D string are
A|----7-9-----------------------------| \ palm muted.
E|--9---------------------------------|

e|------------------------------------|
B|------------------------------------|
G|--11-11-11-11b12r11-9~--------------|
D|------------------------------------|
A|------------------------------------|
E|------------------------------------|

e|------------------------------------|
B|------------------------------------|
G|--11-11-11-11b12r11-9~----8~--6~----|
D|------------------------------------|
A|------------------------------------|
E|------------------------------------|

I want to post or [tab]
guest
You may want to rate the tab now too:
select rating
Please do not post tabs as comments. Select "correction" instead!