Oops, an error
Loading. Please wait.

Bella Tab

version 3
version 3

Whole song

6,771 views 1 this week
no commentswrite comment
1 2 3 4 5
please rate
add to favorites
launch autoscroll
font size
0
reset
how to read this tab
guitar tuner
Tab Pro tools
  • play this tab
  • loop segment
  • change instrument
  • show fretboard
  • metronome
×
Best way to learn
"Bella"
Autoscroll
slow
fast
+/-
esc
set tempo
stop
Contributor
Difficulty
Capo
intermediate
1st fret
Angus and Julia Stone
Bella

Favourite song by far!
Pretty sure this one is 100% right

Follow video lesson with this tab on YouTube
 
Capo on 1st 

Intro
      
e|-----------------------------------|
B|------0h2p0-------3---------0h2----|:
G|-----4------------2----------------|
D|----2--------2---------2-----------|    x3
A|---0----------0---------0----------|:
E|-0---------------------------------|

e|----------------------------0------|
B|------0h2p0-------3---------2------|
G|-----4------------2---------2------|
D|----2--------2---------2----0------|    
A|---0----------0---------0----------|
E|-0---------------------------------|


e|---------------|---------------|----------------|----------------|
B|--2-------2----|--2-------2----|--2h3------3----|--2-------2-----|
G|------4--------|------4--------|-------4--------|------4---------|
D|----2-------2--|----2-------2--|-----2-------2--|----2-------2---|
A|--0-----0------|--0-----0------|--0------0------|--0-----0-------|
E|---------------|---------------|----------------|----------------|

  
e|---------------|---------------|----------------|----------------|
B|--2-------2----|--2h3------3---|--2--------2----|--0-------0-----|
G|------2--------|-------2-------|------2---------|------2---------|
D|----0-------0--|-----0-------0-|----0--------0--|----0-------0---|
A|--2-----2------|--2------2-----|--2-----2-------|--2-----2-------|
E|---------------|---------------|----------------|----------------|


e|--0------------|
B|----------2----|
G|------4--------|  x 4
D|----2-------2--|
A|--0-----0------|
E|---------------|

   
e|---------------|---------------|----------------|----------------|
B|--2-------2----|--2h3------3---|--2--------2----|--0-------0-----|
G|------2--------|-------2-------|------2---------|------2---------|
D|----0-------0--|-----0-------0-|----0--------0--|----0-------0---|
A|--2-----2------|--2------2-----|--2-----2-------|--2-----2-------|
E|---------------|---------------|----------------|----------------|


Verse:

e|---------------|---------------|---------------|----------------|
B|--2-------2----|--2-------2----|--2-------2----|--2-------2-----|
G|------4--------|------4--------|------4--------|------4---------|
D|----2-------2--|----2-------2--|----2-------2--|----2-------2---|
A|--0-----0------|--0-----0------|--0-----0------|--0-----0-------|
E|---------------|---------------|---------------|----------------|


e|---------------|---------------|---------------|----------------|
B|--2-------2----|--2--------2---|--2-------2----|--2-------2-----|
G|------2--------|-------2-------|------2--------|------2---------|
D|----0-------0--|-----0-------0-|----0-------0--|----0-------0---|
A|--2-----2------|--2------2-----|--2-----2------|--2-----2-------|
E|---------------|---------------|---------------|----------------|  


Repeat 3 times, then on the 4th time:
e|---------------|---------------|---------------|----------------|
B|--2-------2----|--2-------2----|--2-------2----|--2-------2-----|
G|------4--------|------4--------|------4--------|------4---------|
D|----2-------2--|----2-------2--|----2-------2--|----2-------2---|
A|--0-----0------|--0-----0------|--0-----0------|--0-----0-------|
E|---------------|---------------|---------------|----------------|


e|---------------|---------------|-----------------|----------------|
B|--2-------2----|--2--------2---|--2h3-------3----|--2-------2-----|
G|------2--------|-------2-------|--------2--------|------2---------|
D|----0-------0--|-----0-------0-|------0-------0--|----0-------0---|
A|--2-----2------|--2------2-----|--2-------2------|--2-----2-------|
E|---------------|---------------|-----------------|----------------|  


e|-0-------------|
B|---------2-----|:
G|-----4---------|   x 4
D|---2-------2---|
A|-0-----0-------|:
E|---------------|



Chorus

   E                A2                               A
e|---------------|---------------|----------------|-----------------|
B|---------------|--2-------2----|--3--------2----|--2--------2-----|
G|--1-------1----|------2--------|-------2--------|------2----------|   x3
D|------2--------|----0-------0--|-----0-------0--|----2--------2---|
A|----2-------0--|--0-----0------|--0------0------|--0------0-------|
E|--0-----0------|---------------|----------------|-----------------|


   E                A2
e|---------------|---------------|----------------|    |--0--------------|
B|---------------|--2-------2----|--3--------2----|    |----------3------|
G|--1-------1----|------2--------|-------2--------| x1 |------2----------| x5
D|------2--------|----0-------0--|-----0-------0--|    |----0--------2---|
A|----2-------0--|--0-----0------|--0------0------|    |--0-----0--------|
E|--0-----0------|---------------|----------------|    |-----------------|


Interlude:

e|---------------|-----------------|----------------|----------------|
B|--2-------2----|--2h3-------3----|--2--------2----|--2-------2-----|
G|------4--------|--------4--------|-------4--------|------4---------| x1
D|----2-------2--|------2-------2--|-----2-------2--|----2-------2---|
A|--0-----0------|--0-------0------|--0------0------|--0-----0-------|
E|---------------|-----------------|----------------|----------------|

  
e|---------------|---------------|----------------|----------------|
B|--2-------2----|--2h3------3---|--2--------2----|--0-------0-----|
G|------2--------|-------2-------|------2---------|------2---------| x1
D|----0-------0--|-----0-------0-|----0--------0--|----0-------0---|
A|--2-----2------|--2------2-----|--2-----2-------|--2-----2-------|
E|---------------|---------------|----------------|----------------|


e|--0------------|
B|----------2----|
G|------4--------|  x 4
D|----2-------2--|
A|--0-----0------|
E|---------------|

e|---------------|---------------|----------------|----------------|
B|--2-------2----|--2h3------3---|--2--------2----|--0-------0-----|
G|------2--------|-------2-------|------2---------|------2---------| x1
D|----0-------0--|-----0-------0-|----0--------0--|----0-------0---|
A|--2-----2------|--2------2-----|--2-----2-------|--2-----2-------|
E|---------------|---------------|----------------|----------------|


Then..

Verse 2: Same as verse 1
Chorus 2: Same as Chorus 1
Interlude x1

"da, de, da da dummm.." is played the same as a Verse

Good Luck

Remember, follow along with the YouTube Video





comments
We did not receive enough feedback on this tab! Please rate:
print report bad tab
1 2 3 4 5
I want to post or [tab]
guest
You may want to rate the tab now too:
select rating
Please do not post tabs as comments. Select "correction" instead!