Oops, an error
Loading. Please wait.

Big Jet Plane Tab

version 1
version 1

Whole song

Interactive

Video

22,856 views 12 this week
3 commentsread comments
1 2 3 4 5
worth learning
x 3
add to favorites
launch autoscroll
font size
0
reset
how to read this tab
guitar tuner
Tab Pro tools
  • play this tab
  • loop segment
  • change instrument
  • show fretboard
  • metronome
×
Best way to learn
"Big Jet Plane"
Autoscroll
slow
fast
+/-
esc
set tempo
stop
Contributor
Difficulty
novice
Intro - Big Jet Plane

My first tab so give feedback :)

   Play 1x
E -----------------------------------------------------------------------|
A -----------------------------------------------------------------------|
G ----9-6-9--1-2---9-6-9------------9-6-9--1-2---9-6-9-------------------|
D -------------------------9-7--------------------------9-7-6/7----------|
B -----------------------------------------------------------------------|
E -----------------------------------------------------------------------|

Thanks :)
comments
We did not receive enough feedback on this tab! Please rate:
print report bad tab
1 2 3 4 5
3 comments total.
0 reply
Lydia_31993 wrote on June 14 2010, 04:58 am

the tunning is bad. i think u mixed it up :P
its:
E. . . biggest string

e. . . baby string

the whole line of (9-6-9 ect.) should be on the B string & the D string is pretty off

i hope u get what i meen :P
nd i hope u fix it up coz its a really mad song. no one has done a perfect tab of this yet, i hope ur the one!

0 reply
Lydia_31993 wrote on June 14 2010, 04:59 am

woops. the E string is the biggest then:

B &
e, which is the smallest. i hope it helps! :)

0 reply
kingkk1 wrote on February 21 2012, 02:38 am

I think you need to move everything up four frets.

G:--10-13-10--------10-13-10----------
D:-----------10-11-----------13-11----

e:--4-1-4-------4-1-4--------
B:--------1-2---------4-2----

I want to post or [tab]
guest
You may want to rate the tab now too:
select rating
Please do not post tabs as comments. Select "correction" instead!