Oops, an error
Loading. Please wait.

Big Jet Plane Tab

version 2
version 2

Whole song

Interactive

Video

29,486 views 15 this week
2 commentsread comments
1 2 3 4 5
worth learning
x 5
add to favorites
launch autoscroll
font size
0
reset
how to read this tab
guitar tuner
Tab Pro tools
  • play this tab
  • loop segment
  • change instrument
  • show fretboard
  • metronome
×
Best way to learn
"Big Jet Plane"
Autoscroll
slow
fast
+/-
esc
set tempo
stop
Contributor
Tuning:E a d g b e
(Standard)

[Verse/Chorus]

Guitar 1:

Palm mute
C# - A# - F
C# - A# - F
(As power Chords)


[Intro/chorus]

Guitar 2:
Clean electric guitar

  [Intro] x2

e|-----------------------------------------------------------------|
B|-6/9--6--9---1---2-----------6/9--6--9--4--2---------------------|
G|-----------------------------------------------------------------|
D|-----------------------------------------------------------------|
A|-----------------------------------------------------------------|
E|-----------------------------------------------------------------|


[Verse]
Guitar 1:

Palm mute
C# - A# - F
C# - A# - F - Ab
(As power Chords)

[Bridge]

C# and A#m, makes sure you don't use them as power chords, but in total.

       -C#-            -A#-
e|------x---------------x----------------|
B|------x---------------x----------------|
G|------10--------------6----------------|
D|------11--------------8----------------|
A|------11--------------8----------------|
E|------9---------------6----------------|

Clean and no PM.

Then.....

e|---------------------------------------------------------------------------|
B|---6---6----6---6---6---6--------------------------------------------------|
G|----6---6----8---6---6---8----(repeat until verse part starts again)-------|
D|-----8---8--------8---8----------------------------------------------------|
A|---------------------------------------------------------------------------|
E|---------------------------------------------------------------------------|


-----------------------------------------------------------------------------
[Intro]

Guitar 1 and 2 together.

[Verse]
She said,

hello mister
Pleased to meet ya
I want to hold her,
I want to kiss her,
She smell the daisy,
She smell the daisy,
She drive me crazy,
She drive me crazy

[Chorus]
Gonna take her for a ride on a big jet plane 
Gonna take her for a ride on a big jet plane 
Gonna take her for a ride on a big jet plane 
hey, hey

[Verse]
Be my lover,
My lady river
But can i take ya,
Take ya higher

[Chorus]
Gonna take her for a ride on a big jet plane 
Gonna take her for a ride on a big jet plane 
Gonna take her for a ride on a big jet plane 
hey, hey

[Bridge]
Gonna hold you,
Gonna kissing my arms
Gonna take you,
Away from home

Gonna hold you,
Gonna kissing my arms
Gonna take you,
Away from home

[Chorus]
Gonna take her for a ride on a big jet plane 
Gonna take her for a ride on a big jet plane 
Gonna take her for a ride on a big jet plane 
hey, hey


| /  slide up
| \  slide down
| h  hammer-on
| p  pull-off
| ~  vibrato
| +  harmonic
| x  Mute note
===============================================================================
comments
print report bad tab
2 comments total.
0 reply
MetalHead409 wrote on December 4 2010, 06:22 am

just a different way to play the

e|-----------------------------------------------------------------|
B|-6/9--6--9---1---2-----------6/9--6--9--4--2---------------------|
G|-----------------------------------------------------------------|
D|-----------------------------------------------------------------|
A|-----------------------------------------------------------------|
E|-----------------------------------------------------------------|
i do

e|-----------------------------------------------------------------|
B|-6/9--6--9-------------------6/9--6--9---------------------------|
G|-------------5---6------------
----------8--6---------------------|
D|-----------------------------------------------------------------|
A|-----------------------------------------------------------------|
E|-----------------------------------------------------------------|
or at least that's the way Julia Plays it :)

also she sometimes does

B|----------6/9--6--9--------------
G|---------------------8--6---5-6--

+1 reply
MetalHead409 wrote on December 4 2010, 06:24 am


e|-----------------------------------------------------------------|
B|-6/9--6--9-------------------6/9--6--9---------------------------|
G|-------------5---6----------------------8--6---------------------|

sorry...

I want to post or [tab]
guest
You may want to rate the tab now too:
select rating
Please do not post tabs as comments. Select "correction" instead!