Oops, an error
Loading. Please wait.

Broken Brights Tab

version 1
version 1

Intro

Whole song

4,949 views 1 this week
2 commentsread comments
1 2 3 4 5
please rate
add to favorites
launch autoscroll
font size
0
reset
how to read this tab
guitar tuner
Tab Pro tools
  • play this tab
  • loop segment
  • change instrument
  • show fretboard
  • metronome
×
Best way to learn
"Broken Brights"
Autoscroll
slow
fast
+/-
esc
set tempo
stop
Difficulty
Tuning
novice
D A D G B E
This is my first tab i have ever submitted but I'm sure this is correct. It's 
extremely simple and should only take a few moments to work out.





Main Chords - Guitar 1 - (0:00/4:11)
These are played through the entire song. There are no variations.  

e-----------|
B-----------|
G-----------|
D--1--4--3--|
A--2--6--4--|
D--4--8--6--|

Is that the old man....





Solo - Guitar 2 (2:00)
Played in electric guitar.

e------------------------------------------------------------|
B--11----9--7--9--4---------11----9--7--9--4-----------------|
G------------------------------------------------------------|
D------------------------------------------------------------|
A------------------------------------------------------------|
D------------------------------------------------------------|


e------------------------------------------------------------|
B--2--2--2--2--2--2--2----7--7--7--7--6--6--2----------------|
G------------------------------------------------------------|
D------------------------------------------------------------|
A------------------------------------------------------------|
D------------------------------------------------------------|


e------------------------------------------------------------|
B--11----9--7--9--4---------11----9--7--9--4-----------------|
G------------------------------------------------------------|
D------------------------------------------------------------|
A------------------------------------------------------------|
D------------------------------------------------------------|


e------------------------------------------------------------|
B--7--7--7--7--7--7--7----6--6--6--6--2--2--2----------------|
G------------------------------------------------------------|
D------------------------------------------------------------|
A------------------------------------------------------------|
D------------------------------------------------------------|

comments
We did not receive enough feedback on this tab! Please rate:
print report bad tab
1 2 3 4 5
2 comments total.
+1 reply
Mgroeber wrote on April 24 2012, 04:19 am

The tab is accurate, but why bother retuning when you can play the song in standard tuning without having to stretch your hands that much and with a barely audible difference ?

e-----------|
B-----------|
G-----------|
D--1--4--3--|
A--2--6--4--|
E--2--6--4--|

Good job still :)

0 reply
rip.c.hamilton wrote on April 4 2014, 06:02 pm

something about the solo doesn't sound right... Since I'm just beginning, I can't really correct it, but I would suggest taking a second look at it :)

I want to post or [tab]
guest
You may want to rate the tab now too:
select rating
Please do not post tabs as comments. Select "correction" instead!