Oops, an error
Loading. Please wait.

Choking intro tab

1,641 views 3 this week
3 commentsread comments
1 2 3 4 5
x 6
add to favorites
×
Save as Personal and add changes to this tab that will be seen only by you. Learn more ›
×
You can save this tab as Personal to edit and correct it or add notes. All changes will be seen only by you. Learn more »
launch autoscroll
font size
0
reset
how to read this tab
guitar tuner
edit
Autoscroll
slow
fast
+/-
esc
set tempo
stop
-------------------------------------------------------------------------------
                                            CHOKING - Angus & Julia Stone 
-------------------------------------------------------------------------------
Tabbed by:sam.bangma
Email: sam.bangma@hotmail.com

Tuning: Drop D


Played together
e|------------------------------------------------------------------------------------------|
B|---------------------------------------------------------------------5/7~~----------------|
G|------------------------------------------------------------------------------------------|
D|---------------4---------------------5--------------------4-------------------------------|
A|------------------------------------------------------------------------------------------|
D|-----0--------------------0---------------------0-----------------------------------------|


e|------------------------------------------------------------------------------------------|
B|---------------------5/7~~----------------------------------------------------------------|
G|---------------------------------------------6/7\6~~----------------------6\4~~-----------|
D|---------------4----------------------5-------------------------4-------------------4/7~~-|
A|------------------------------------------------------------------------------------------|
D|-----0--------------------------0----------------------0----------------------------------|

e|------------------------------------------------------------------------------------------|
B|--------------------------------------------------5----------------------5/7~~------------|
G|---------------------6/7\6--------------------6-------------------------------------------|
D|---------------4---------------------5----7-------------------4---------------------------|
A|------------------------------------------------------------------------------------------|
D|-----0--------------------0---------------------------0-----------------------------------|


e|------------------------------------------------------------------------------------------|
B|------------------------------------------------------------------------------------------|
G|------------------------------------------------------------------------------------------|
D|---------------4------4/5\4---------------5---------------------------------4-------------|
A|------------------------------------------------4/5---------------4---4---4/5-------------|
D|-----0--------------------------0---------------------0-----------------------------------|



Verse/Chorus (repeats throughout whole song)
e|------------------------------------------------------------------------------------------|
B|------------------------------------------------------------------------------------------|
G|------------------------------------------------------------------------------------------|
D|---------------4---------------------5--------------------4-------------------------------|
A|------------------------------------------------------------------------------------------|
D|-----0--------------------0---------------------0-----------------------------------------|

Please rate, this took me ages


************************************

| /   slide up
| \   slide down
| h   hammer-on
| p   pull-off
| ~   vibrato
| +   harmonic
| x   Mute note
| b   Bend
| pb  Pre-bend
| br  Bend release
| pbr Pre-bend release
| brb Bend release bend

************************************
Suggest correction
Creating personal tab
Creating personal tab
You can edit any tab online and save it as your Personal.

You can edit, replace or remove any tab part or add personal notes – all changes will be seen only by you.

Personal tabs can be accessed anytime from any device, even offline.
Learn more »
comments
print report bad tab
3 comments total.
0 reply
Sheriff-722 10 Mar 10, 2015 03:33 AM

Thank you so much for this.

It came on in my car the other day and just hit me, I've heard it a thousand times but on this day I just stuck it on repeat and melted. I have struggled to sing while plucking in the past, this is a great repetitive plucking pattern, which I can embellish a little as I get more confident with it.

Is drop D just
ebgdad? - just the low E tuned down?

Thank you.

0 reply
Fap4Exp 31 Jul 21, 2016 01:18 PM

Wow Sam, this is perfect. If you could somehow get the fills that would be great. 5/5

0 reply
Fap4Exp 31 Jul 21, 2016 01:35 PM

towards the end of the song.

harmony that goes alongside it
e|---------------------------
B|---------------------------
G|-------2------0------------
D|---4------4-----------4----
A|---------------------------
D|------------------0--------

2nd guitar with variations of this
e|---------------------------
B|---------------------------
G|---------------------------
D|---------------------------
A|----0h4/5--7--9--10--12----
D|---------------------------

guest
Wanna post a correction for this tab? Suggest correction