Oops, an error
Loading. Please wait.

Heart Full Of Wine tab

version 1
version 1

Whole song

Interactive

29,101 views 24 this week
8 commentsread comments
1 2 3 4 5
x 18
add to favorites
×
Save as Personal and add changes to this tab that will be seen only by you. Learn more ›
×
You can save this tab as Personal to edit and correct it or add notes. All changes will be seen only by you. Learn more »
launch autoscroll
font size
0
reset
how to read this tab
guitar tuner
edit
Autoscroll
slow
fast
+/-
esc
set tempo
stop
Capo 4

[Intro/Verse]                                 [Pre-Chorus]
e|-------------------------------------------|-------------------------| 
B|------1--------1--------0----------0h1-----|-------1--------0--------| 
G|----0---0----0---0----0---0-----0----------|-----0---0----0----------| 
D|--3--------2-------------------------------|-------------------------|
A|-------------------------------------------|-------------------------| 
E|--------------------3---------3------------|---3--------3------------| 

[Chorus]
e|---------------------------------------------------------------------| 
B|--0-1-3---1p0-1----1--------1--------1--------1----------------------| 
G|--0-0-0---0---0--0---0----0---0----0---0----0---0--------------------| 
D|------------------------3--------3--------3--------------------------| 
A|---------------------------------------------------------------------| 
E|---------------------------------------------------------------------| 

e|---------------------------------------------------------------------| 
B|--0-1-5---3s1-3----3--------3--------3--------3----------------------|
G|--0-0-0---0---0--0---0----0---0----0---0----0---0--------------------| 
D|---------------------------------------------------------------------| 
A|---------------------------------------------------------------------| 
E|------------------------3--------3--------3--------------------------| 

[Outro]
e|---------------------------------------------------------------------|
B|-----3------5------3------5---------1-0---0------1-0---0-------------| 
G|------0------0------0------0--------0-0---0------0-0---0-------------| 
D|----0--0---0--0---0--0---0--0----------------------------------------|
A|---2------2------2------2--------2-------------2---------------------| 
E|--3------3------3------3-------3--------3----3-------3---------------|


************************************

| h  Hammer-on
| p  Pull-off 

************************************

            
            
Suggest correction
Creating personal tab
Creating personal tab
You can edit any tab online and save it as your Personal.

You can edit, replace or remove any tab part or add personal notes – all changes will be seen only by you.

Personal tabs can be accessed anytime from any device, even offline.
Learn more »
comments
print report bad tab
8 comments total. Showing first comments.
0 reply
mymainmanjesus 40 Nov 26, 2008 10:10 PM

very well done

0 reply
carly.maree 10 Apr 20, 2009 01:14 AM

this is good but if you listen to the song, it has a higher pitch or whatever...
it's actually up on the 7th fret on the fourth string...
i will tab it and post it later...

0 reply
dylkowal 10 Jul 24, 2010 06:50 AM

carly 7th fret doesn't sound right at all hahah

good tab bro (Y)

guest
You may want to rate the tab now too:
select rating
Wanna post a correction for this tab? Suggest correction